  0
SECTION
  2
HEADER
  9
$ACADVER
  1
AC1015
  9
$ACADMAINTVER
 70
    20
  9
$DWGCODEPAGE
  3
ANSI_1252
  9
$INSBASE
 10
0.0
 20
0.0
 30
0.0
  9
$EXTMIN
 10
4148.8687901251
 20
2397.173782446067
 30
0.0
  9
$EXTMAX
 10
4150.639918226119
 20
2397.552176483552
 30
0.0
  9
$LIMMIN
 10
0.0
 20
0.0
  9
$LIMMAX
 10
420.0
 20
297.0
  9
$ORTHOMODE
 70
     0
  9
$REGENMODE
 70
     1
  9
$FILLMODE
 70
     1
  9
$QTEXTMODE
 70
     0
  9
$MIRRTEXT
 70
     1
  9
$LTSCALE
 40
1.0
  9
$ATTMODE
 70
     1
  9
$TEXTSIZE
 40
2.5
  9
$TRACEWID
 40
1.0
  9
$TEXTSTYLE
  7
SANINDUSA
  9
$CLAYER
  8
cotas
  9
$CELTYPE
  6
ByLayer
  9
$CECOLOR
 62
   256
  9
$CELTSCALE
 40
1.0
  9
$DISPSILH
 70
     0
  9
$DIMSCALE
 40
1.0
  9
$DIMASZ
 40
2.0
  9
$DIMEXO
 40
1.0
  9
$DIMDLI
 40
1.0
  9
$DIMRND
 40
0.0
  9
$DIMDLE
 40
0.0
  9
$DIMEXE
 40
1.0
  9
$DIMTP
 40
0.0
  9
$DIMTM
 40
0.0
  9
$DIMTXT
 40
2.0
  9
$DIMCEN
 40
0.0
  9
$DIMTSZ
 40
0.0
  9
$DIMTOL
 70
     0
  9
$DIMLIM
 70
     0
  9
$DIMTIH
 70
     0
  9
$DIMTOH
 70
     0
  9
$DIMSE1
 70
     0
  9
$DIMSE2
 70
     0
  9
$DIMTAD
 70
     1
  9
$DIMZIN
 70
     8
  9
$DIMBLK
  1

  9
$DIMASO
 70
     1
  9
$DIMSHO
 70
     1
  9
$DIMPOST
  1

  9
$DIMAPOST
  1

  9
$DIMALT
 70
     0
  9
$DIMALTD
 70
     3
  9
$DIMALTF
 40
0.03937007874016
  9
$DIMLFAC
 40
1.0
  9
$DIMTOFL
 70
     1
  9
$DIMTVP
 40
0.0
  9
$DIMTIX
 70
     0
  9
$DIMSOXD
 70
     0
  9
$DIMSAH
 70
     0
  9
$DIMBLK1
  1

  9
$DIMBLK2
  1

  9
$DIMSTYLE
  2
SANINDUSA
  9
$DIMCLRD
 70
   256
  9
$DIMCLRE
 70
   256
  9
$DIMCLRT
 70
   256
  9
$DIMTFAC
 40
1.0
  9
$DIMGAP
 40
1.0
  9
$DIMJUST
 70
     0
  9
$DIMSD1
 70
     0
  9
$DIMSD2
 70
     0
  9
$DIMTOLJ
 70
     0
  9
$DIMTZIN
 70
     8
  9
$DIMALTZ
 70
     0
  9
$DIMALTTZ
 70
     0
  9
$DIMUPT
 70
     0
  9
$DIMDEC
 70
     1
  9
$DIMTDEC
 70
     1
  9
$DIMALTU
 70
     2
  9
$DIMALTTD
 70
     3
  9
$DIMTXSTY
  7
SANINDUSA
  9
$DIMAUNIT
 70
     0
  9
$DIMADEC
 70
     1
  9
$DIMALTRND
 40
0.0
  9
$DIMAZIN
 70
     0
  9
$DIMDSEP
 70
    44
  9
$DIMATFIT
 70
     3
  9
$DIMFRAC
 70
     0
  9
$DIMLDRBLK
  1

  9
$DIMLUNIT
 70
     2
  9
$DIMLWD
 70
    -1
  9
$DIMLWE
 70
    -1
  9
$DIMTMOVE
 70
     0
  9
$LUNITS
 70
     2
  9
$LUPREC
 70
     4
  9
$SKETCHINC
 40
1.0
  9
$FILLETRAD
 40
3.0
  9
$AUNITS
 70
     0
  9
$AUPREC
 70
     0
  9
$MENU
  1
.
  9
$ELEVATION
 40
0.0
  9
$PELEVATION
 40
0.0
  9
$THICKNESS
 40
0.0
  9
$LIMCHECK
 70
     0
  9
$CHAMFERA
 40
10.0
  9
$CHAMFERB
 40
10.0
  9
$CHAMFERC
 40
20.0
  9
$CHAMFERD
 40
0.0
  9
$SKPOLY
 70
     0
  9
$TDCREATE
 40
2457232.706362106
  9
$TDUCREATE
 40
2457232.664695440
  9
$TDUPDATE
 40
2457232.736766840
  9
$TDUUPDATE
 40
2457232.695100174
  9
$TDINDWG
 40
0.0137315625
  9
$TDUSRTIMER
 40
0.0137313889
  9
$USRTIMER
 70
     1
  9
$ANGBASE
 50
0.0
  9
$ANGDIR
 70
     0
  9
$PDMODE
 70
     0
  9
$PDSIZE
 40
0.0
  9
$PLINEWID
 40
0.0
  9
$SPLFRAME
 70
     0
  9
$SPLINETYPE
 70
     6
  9
$SPLINESEGS
 70
     8
  9
$HANDSEED
  5
148F
  9
$SURFTAB1
 70
     6
  9
$SURFTAB2
 70
     6
  9
$SURFTYPE
 70
     6
  9
$SURFU
 70
     6
  9
$SURFV
 70
     6
  9
$UCSBASE
  2

  9
$UCSNAME
  2

  9
$UCSORG
 10
0.0
 20
0.0
 30
0.0
  9
$UCSXDIR
 10
1.0
 20
0.0
 30
0.0
  9
$UCSYDIR
 10
0.0
 20
1.0
 30
0.0
  9
$UCSORTHOREF
  2

  9
$UCSORTHOVIEW
 70
     0
  9
$UCSORGTOP
 10
0.0
 20
0.0
 30
0.0
  9
$UCSORGBOTTOM
 10
0.0
 20
0.0
 30
0.0
  9
$UCSORGLEFT
 10
0.0
 20
0.0
 30
0.0
  9
$UCSORGRIGHT
 10
0.0
 20
0.0
 30
0.0
  9
$UCSORGFRONT
 10
0.0
 20
0.0
 30
0.0
  9
$UCSORGBACK
 10
0.0
 20
0.0
 30
0.0
  9
$PUCSBASE
  2

  9
$PUCSNAME
  2

  9
$PUCSORG
 10
0.0
 20
0.0
 30
0.0
  9
$PUCSXDIR
 10
1.0
 20
0.0
 30
0.0
  9
$PUCSYDIR
 10
0.0
 20
1.0
 30
0.0
  9
$PUCSORTHOREF
  2

  9
$PUCSORTHOVIEW
 70
     0
  9
$PUCSORGTOP
 10
0.0
 20
0.0
 30
0.0
  9
$PUCSORGBOTTOM
 10
0.0
 20
0.0
 30
0.0
  9
$PUCSORGLEFT
 10
0.0
 20
0.0
 30
0.0
  9
$PUCSORGRIGHT
 10
0.0
 20
0.0
 30
0.0
  9
$PUCSORGFRONT
 10
0.0
 20
0.0
 30
0.0
  9
$PUCSORGBACK
 10
0.0
 20
0.0
 30
0.0
  9
$USERI1
 70
     0
  9
$USERI2
 70
     0
  9
$USERI3
 70
     0
  9
$USERI4
 70
     0
  9
$USERI5
 70
     0
  9
$USERR1
 40
0.0
  9
$USERR2
 40
0.0
  9
$USERR3
 40
0.0
  9
$USERR4
 40
0.0
  9
$USERR5
 40
0.0
  9
$WORLDVIEW
 70
     1
  9
$SHADEDGE
 70
     3
  9
$SHADEDIF
 70
    70
  9
$TILEMODE
 70
     1
  9
$MAXACTVP
 70
    64
  9
$PINSBASE
 10
0.0
 20
0.0
 30
0.0
  9
$PLIMCHECK
 70
     0
  9
$PEXTMIN
 10
1.000000000000000E+20
 20
1.000000000000000E+20
 30
1.000000000000000E+20
  9
$PEXTMAX
 10
-1.000000000000000E+20
 20
-1.000000000000000E+20
 30
-1.000000000000000E+20
  9
$PLIMMIN
 10
0.0
 20
0.0
  9
$PLIMMAX
 10
420.0
 20
297.0
  9
$UNITMODE
 70
     0
  9
$VISRETAIN
 70
     1
  9
$PLINEGEN
 70
     0
  9
$PSLTSCALE
 70
     1
  9
$TREEDEPTH
 70
  3020
  9
$CMLSTYLE
  2
Standard
  9
$CMLJUST
 70
     0
  9
$CMLSCALE
 40
20.0
  9
$PROXYGRAPHICS
 70
     1
  9
$MEASUREMENT
 70
     1
  9
$CELWEIGHT
370
    -1
  9
$ENDCAPS
280
     0
  9
$JOINSTYLE
280
     0
  9
$LWDISPLAY
290
     0
  9
$INSUNITS
 70
     4
  9
$HYPERLINKBASE
  1

  9
$STYLESHEET
  1
sanindusa.ctb
  9
$XEDIT
290
     1
  9
$CEPSNTYPE
380
     0
  9
$PSTYLEMODE
290
     1
  9
$FINGERPRINTGUID
  2
{854E8B5E-7E31-4EF8-A4B7-0004EA1D02B1}
  9
$VERSIONGUID
  2
{B4AF63C4-950E-4812-AB31-204E6EAF08BE}
  9
$EXTNAMES
290
     1
  9
$PSVPSCALE
 40
0.0
  9
$OLESTARTUP
290
     0
  0
ENDSEC
  0
SECTION
  2
CLASSES
  0
CLASS
  1
ACDBDICTIONARYWDFLT
  2
AcDbDictionaryWithDefault
  3
ObjectDBX Classes
 90
        0
280
     0
281
     0
  0
CLASS
  1
ACDBPLACEHOLDER
  2
AcDbPlaceHolder
  3
ObjectDBX Classes
 90
        0
280
     0
281
     0
  0
CLASS
  1
LAYOUT
  2
AcDbLayout
  3
ObjectDBX Classes
 90
        0
280
     0
281
     0
  0
CLASS
  1
DICTIONARYVAR
  2
AcDbDictionaryVar
  3
ObjectDBX Classes
 90
        0
280
     0
281
     0
  0
CLASS
  1
DIMASSOC
  2
AcDbDimAssoc
  3
"AcDbDimAssoc|Product Desc:     AcDim ARX App For Dimension|Company:          Autodesk, Inc.|WEB Address:      www.autodesk.com"
 90
    32768
280
     0
281
     0
  0
CLASS
  1
TABLESTYLE
  2
AcDbTableStyle
  3
ObjectDBX Classes
 90
     4095
280
     0
281
     0
  0
CLASS
  1
MATERIAL
  2
AcDbMaterial
  3
ObjectDBX Classes
 90
     1153
280
     0
281
     0
  0
CLASS
  1
VISUALSTYLE
  2
AcDbVisualStyle
  3
ObjectDBX Classes
 90
     4095
280
     0
281
     0
  0
CLASS
  1
SCALE
  2
AcDbScale
  3
ObjectDBX Classes
 90
     1153
280
     0
281
     0
  0
CLASS
  1
MLEADERSTYLE
  2
AcDbMLeaderStyle
  3
ACDB_MLEADERSTYLE_CLASS
 90
     4095
280
     0
281
     0
  0
CLASS
  1
ACDBSECTIONVIEWSTYLE
  2
AcDbSectionViewStyle
  3
ObjectDBX Classes
 90
     1025
280
     0
281
     0
  0
CLASS
  1
ACDBDETAILVIEWSTYLE
  2
AcDbDetailViewStyle
  3
ObjectDBX Classes
 90
     1025
280
     0
281
     0
  0
CLASS
  1
SORTENTSTABLE
  2
AcDbSortentsTable
  3
ObjectDBX Classes
 90
    32768
280
     0
281
     0
  0
CLASS
  1
CELLSTYLEMAP
  2
AcDbCellStyleMap
  3
ObjectDBX Classes
 90
     1152
280
     0
281
     0
  0
ENDSEC
  0
SECTION
  2
TABLES
  0
TABLE
  2
VPORT
  5
8
102
{ACAD_XDICTIONARY
360
13FB
102
}
330
0
100
AcDbSymbolTable
 70
     1
  0
VPORT
  5
1068
330
8
100
AcDbSymbolTableRecord
100
AcDbViewportTableRecord
  2
*Active
 70
     0
 10
0.0
 20
0.0
 11
1.0
 21
1.0
 12
4149.754313652253
 22
2397.362979464809
 13
0.0
 23
0.0
 14
10.0
 24
10.0
 15
10.0
 25
10.0
 16
0.0
 26
0.0
 36
1.0
 17
0.0
 27
0.0
 37
0.0
 40
1.073548820750147
 41
1.656050955414012
 42
50.0
 43
0.0
 44
0.0
 50
0.0
 51
0.0
 71
     0
 72
   100
 73
     1
 74
     2
 75
     0
 76
     0
 77
     0
 78
     0
281
     0
 65
     1
110
0.0
120
0.0
130
0.0
111
1.0
121
0.0
131
0.0
112
0.0
122
1.0
132
0.0
 79
     0
146
0.0
1001
ACAD_NAV_VCDISPLAY
1070
     3
  0
ENDTAB
  0
TABLE
  2
LTYPE
  5
5
330
0
100
AcDbSymbolTable
 70
     6
  0
LTYPE
  5
14
330
5
100
AcDbSymbolTableRecord
100
AcDbLinetypeTableRecord
  2
ByBlock
 70
     0
  3

 72
    65
 73
     0
 40
0.0
  0
LTYPE
  5
15
330
5
100
AcDbSymbolTableRecord
100
AcDbLinetypeTableRecord
  2
ByLayer
 70
     0
  3

 72
    65
 73
     0
 40
0.0
  0
LTYPE
  5
16
330
5
100
AcDbSymbolTableRecord
100
AcDbLinetypeTableRecord
  2
Continuous
 70
     0
  3
Solid line
 72
    65
 73
     0
 40
0.0
  0
LTYPE
  5
2D
330
5
100
AcDbSymbolTableRecord
100
AcDbLinetypeTableRecord
  2
DASHDOT
 70
     0
  3
Dash dot __ . __ . __ . __ . __ . __ . __ . __
 72
    65
 73
     4
 40
25.4
 49
12.7
 74
     0
 49
-6.349999999999999
 74
     0
 49
0.0
 74
     0
 49
-6.349999999999999
 74
     0
  0
LTYPE
  5
2E
330
5
100
AcDbSymbolTableRecord
100
AcDbLinetypeTableRecord
  2
HIDDEN
 70
     0
  3
Hidden __ __ __ __ __ __ __ __ __ __ __ __ __ _
 72
    65
 73
     2
 40
9.524999999999998
 49
6.349999999999999
 74
     0
 49
-3.174999999999999
 74
     0
  0
LTYPE
  5
C75
330
5
100
AcDbSymbolTableRecord
100
AcDbLinetypeTableRecord
  2
AM_ISO02W050
 70
     0
  3
__ __ __ __ __ __ __ __ __ __ __ __ __ __ __
 72
    65
 73
     2
 40
7.5
 49
6.0
 74
     0
 49
-1.5
 74
     0
  0
LTYPE
  5
C76
330
5
100
AcDbSymbolTableRecord
100
AcDbLinetypeTableRecord
  2
AM_ISO08W050
 70
     0
  3
____ . ____ . ____ . ____ . ____ . ____ . ____
 72
    65
 73
     4
 40
18.0
 49
12.0
 74
     0
 49
-1.5
 74
     0
 49
3.0
 74
     0
 49
-1.5
 74
     0
  0
LTYPE
  5
1171
330
5
100
AcDbSymbolTableRecord
100
AcDbLinetypeTableRecord
  2
CENTER
 70
     0
  3
Center ____ _ ____ _ ____ _ ____ _ ____ _ ____
 72
    65
 73
     4
 40
10.16
 49
6.349999999999999
 74
     0
 49
-1.27
 74
     0
 49
1.27
 74
     0
 49
-1.27
 74
     0
  0
ENDTAB
  0
TABLE
  2
LAYER
  5
2
102
{ACAD_XDICTIONARY
360
1051
102
}
330
0
100
AcDbSymbolTable
 70
    17
  0
LAYER
  5
10
102
{ACAD_XDICTIONARY
360
13D5
102
}
330
2
100
AcDbSymbolTableRecord
100
AcDbLayerTableRecord
  2
0
 70
     0
 62
     7
  6
Continuous
370
    -3
390
F
  0
LAYER
  5
2F
102
{ACAD_XDICTIONARY
360
13D7
102
}
330
2
100
AcDbSymbolTableRecord
100
AcDbLayerTableRecord
  2
1
 70
     0
 62
     1
  6
Continuous
370
    -3
390
F
  0
LAYER
  5
30
102
{ACAD_XDICTIONARY
360
13D9
102
}
330
2
100
AcDbSymbolTableRecord
100
AcDbLayerTableRecord
  2
2
 70
     0
 62
     2
  6
Continuous
370
    -3
390
F
  0
LAYER
  5
31
102
{ACAD_XDICTIONARY
360
13DB
102
}
330
2
100
AcDbSymbolTableRecord
100
AcDbLayerTableRecord
  2
3
 70
     0
 62
     3
  6
Continuous
370
    -3
390
F
  0
LAYER
  5
32
102
{ACAD_XDICTIONARY
360
13DD
102
}
330
2
100
AcDbSymbolTableRecord
100
AcDbLayerTableRecord
  2
4
 70
     0
 62
     4
  6
Continuous
370
    -3
390
F
  0
LAYER
  5
33
102
{ACAD_XDICTIONARY
360
13DF
102
}
330
2
100
AcDbSymbolTableRecord
100
AcDbLayerTableRecord
  2
5
 70
     0
 62
     5
  6
Continuous
370
    -3
390
F
  0
LAYER
  5
34
102
{ACAD_XDICTIONARY
360
13E1
102
}
330
2
100
AcDbSymbolTableRecord
100
AcDbLayerTableRecord
  2
6
 70
     0
 62
     6
  6
Continuous
370
    -3
390
F
  0
LAYER
  5
35
102
{ACAD_XDICTIONARY
360
13E3
102
}
330
2
100
AcDbSymbolTableRecord
100
AcDbLayerTableRecord
  2
7
 70
     0
 62
     7
  6
Continuous
370
    -3
390
F
  0
LAYER
  5
36
102
{ACAD_XDICTIONARY
360
13E5
102
}
330
2
100
AcDbSymbolTableRecord
100
AcDbLayerTableRecord
  2
cen
 70
     0
 62
     7
  6
DASHDOT
370
    -3
390
F
  0
LAYER
  5
37
102
{ACAD_XDICTIONARY
360
13E7
102
}
330
2
100
AcDbSymbolTableRecord
100
AcDbLayerTableRecord
  2
hid
 70
     0
 62
     7
  6
HIDDEN
370
    -3
390
F
  0
LAYER
  5
5D6
102
{ACAD_XDICTIONARY
360
13E9
102
}
330
2
100
AcDbSymbolTableRecord
100
AcDbLayerTableRecord
  2
hatch
 70
     0
 62
     9
  6
Continuous
370
    -3
390
F
  0
LAYER
  5
8AF
102
{ACAD_XDICTIONARY
360
13EB
102
}
330
2
100
AcDbSymbolTableRecord
100
AcDbLayerTableRecord
  2
9
 70
     0
 62
     9
  6
Continuous
370
    -3
390
F
  0
LAYER
  5
8F8
102
{ACAD_XDICTIONARY
360
13ED
102
}
330
2
100
AcDbSymbolTableRecord
100
AcDbLayerTableRecord
  2
leg fin
 70
     0
 62
     9
  6
Continuous
370
    -3
390
F
  0
LAYER
  5
91D
102
{ACAD_XDICTIONARY
360
13EF
102
}
330
2
100
AcDbSymbolTableRecord
100
AcDbLayerTableRecord
  2
cotas
 70
     0
 62
     1
  6
Continuous
370
    -3
390
F
  0
LAYER
  5
92F
330
2
100
AcDbSymbolTableRecord
100
AcDbLayerTableRecord
  2
Defpoints
 70
     0
 62
     7
  6
Continuous
290
     0
370
    -3
390
F
  0
LAYER
  5
C7B
102
{ACAD_XDICTIONARY
360
13F1
102
}
330
2
100
AcDbSymbolTableRecord
100
AcDbLayerTableRecord
  2
SANINDUSA
 70
     0
 62
     3
  6
Continuous
370
    -3
390
F
  0
LAYER
  5
1060
102
{ACAD_XDICTIONARY
360
13F3
102
}
330
2
100
AcDbSymbolTableRecord
100
AcDbLayerTableRecord
  2
hid1
 70
     0
 62
     9
  6
HIDDEN
370
    -3
390
F
1001
AcAecLayerStandard
1000

1000

  0
ENDTAB
  0
TABLE
  2
STYLE
  5
3
330
0
100
AcDbSymbolTable
 70
     5
  0
STYLE
  5
11
330
3
100
AcDbSymbolTableRecord
100
AcDbTextStyleTableRecord
  2
Standard
 70
     0
 40
0.0
 41
1.0
 50
0.0
 71
     0
 42
2.5
  3
Avgardn.ttf
  4

1001
ACAD
1000
AvantGarde Bk BT
1071
       34
  0
STYLE
  5
2C
330
3
100
AcDbSymbolTableRecord
100
AcDbTextStyleTableRecord
  2

 70
     1
 40
0.0
 41
1.0
 50
0.0
 71
     0
 42
2.5
  3
ltypeshp.shx
  4

  0
STYLE
  5
91F
330
3
100
AcDbSymbolTableRecord
100
AcDbTextStyleTableRecord
  2
SANINDUSA
 70
     0
 40
0.0
 41
1.0
 50
0.0
 71
     0
 42
2.5
  3
verdana.ttf
  4

1001
ACAD
1000
Verdana
1071
       34
  0
STYLE
  5
C7C
330
3
100
AcDbSymbolTableRecord
100
AcDbTextStyleTableRecord
  2
futura
 70
     0
 40
0.0
 41
1.0
 50
0.0
 71
     0
 42
2.5
  3
zuricrm.ttf
  4

1001
ACAD
1000
Zurich BT
1071
       34
  0
STYLE
  5
1172
330
3
100
AcDbSymbolTableRecord
100
AcDbTextStyleTableRecord
  2
SLDTEXTSTYLE0
 70
     0
 40
0.0
 41
0.75
 50
0.0
 71
     0
 42
0.2
  3
TXT
  4

  0
ENDTAB
  0
TABLE
  2
VIEW
  5
6
330
0
100
AcDbSymbolTable
 70
     0
  0
ENDTAB
  0
TABLE
  2
UCS
  5
7
330
0
100
AcDbSymbolTable
 70
     0
  0
ENDTAB
  0
TABLE
  2
APPID
  5
9
330
0
100
AcDbSymbolTable
 70
    16
  0
APPID
  5
12
330
9
100
AcDbSymbolTableRecord
100
AcDbRegAppTableRecord
  2
ACAD
 70
     0
  0
APPID
  5
3A
330
9
100
AcDbSymbolTableRecord
100
AcDbRegAppTableRecord
  2
DCO15
 70
     0
  0
APPID
  5
EEE
330
9
100
AcDbSymbolTableRecord
100
AcDbRegAppTableRecord
  2
ACAD_DSTYLE_DIMTEXT_FILL
 70
     0
  0
APPID
  5
EEF
330
9
100
AcDbSymbolTableRecord
100
AcDbRegAppTableRecord
  2
ACAD_DSTYLE_DIMEXT_LENGTH
 70
     0
  0
APPID
  5
EF0
330
9
100
AcDbSymbolTableRecord
100
AcDbRegAppTableRecord
  2
ACAD_DSTYLE_DIMEXT_ENABLED
 70
     0
  0
APPID
  5
EF1
330
9
100
AcDbSymbolTableRecord
100
AcDbRegAppTableRecord
  2
ACAD_DSTYLE_DIM_LINETYPE
 70
     0
  0
APPID
  5
EF2
330
9
100
AcDbSymbolTableRecord
100
AcDbRegAppTableRecord
  2
ACAD_DSTYLE_DIM_EXT1_LINETYPE
 70
     0
  0
APPID
  5
EF3
330
9
100
AcDbSymbolTableRecord
100
AcDbRegAppTableRecord
  2
ACAD_DSTYLE_DIM_EXT2_LINETYPE
 70
     0
  0
APPID
  5
FAF
330
9
100
AcDbSymbolTableRecord
100
AcDbRegAppTableRecord
  2
ACAD_DSTYLE_DIMJOGGED_JOGANGLE_SYMBOL
 70
     0
  0
APPID
  5
1013
330
9
100
AcDbSymbolTableRecord
100
AcDbRegAppTableRecord
  2
ACAD_DSTYLE_DIMARC_LENGTH_SYMBOL
 70
     0
  0
APPID
  5
1061
330
9
100
AcDbSymbolTableRecord
100
AcDbRegAppTableRecord
  2
AcAecLayerStandard
 70
     0
  0
APPID
  5
1173
330
9
100
AcDbSymbolTableRecord
100
AcDbRegAppTableRecord
  2
ACAD_NAV_VCDISPLAY
 70
     0
  0
APPID
  5
1174
330
9
100
AcDbSymbolTableRecord
100
AcDbRegAppTableRecord
  2
ACAD_DSTYLE_DIMJAG
 70
     0
  0
APPID
  5
1175
330
9
100
AcDbSymbolTableRecord
100
AcDbRegAppTableRecord
  2
ACAD_DSTYLE_DIMTALN
 70
     0
  0
APPID
  5
1176
330
9
100
AcDbSymbolTableRecord
100
AcDbRegAppTableRecord
  2
ACAD_DSTYLE_DIMRADIAL_EXTENSION
 70
     0
  0
APPID
  5
1437
330
9
100
AcDbSymbolTableRecord
100
AcDbRegAppTableRecord
  2
ACAD_MLEADERVER
 70
     0
  0
ENDTAB
  0
TABLE
  2
DIMSTYLE
  5
A
330
0
100
AcDbSymbolTable
 70
     3
100
AcDbDimStyleTable
 71
     1
340
921
  0
DIMSTYLE
105
45
330
A
100
AcDbSymbolTableRecord
100
AcDbDimStyleTableRecord
  2
STANDARD
 70
     0
289
     0
340
11
  0
DIMSTYLE
105
921
330
A
100
AcDbSymbolTableRecord
100
AcDbDimStyleTableRecord
  2
SANINDUSA
 70
     0
 41
2.0
 42
1.0
 43
1.0
 44
1.0
 73
     0
 74
     0
 77
     1
 78
     8
140
2.0
141
0.0
143
0.03937007874016
147
1.0
171
     3
172
     1
176
   256
177
   256
178
   256
179
     1
271
     1
272
     1
274
     3
278
    44
283
     0
284
     8
340
91F
371
    -1
372
    -1
1001
ACAD_DSTYLE_DIMJOGGED_JOGANGLE_SYMBOL
1070
   384
1040
1.570796326794896
  0
DIMSTYLE
105
C7D
330
A
100
AcDbSymbolTableRecord
100
AcDbDimStyleTableRecord
  2
AM_ISO
 70
     0
  4
"
 41
2.5
 42
1.0
 43
10.0
 44
1.0
 47
0.1
 48
0.1
 73
     0
 74
     0
 77
     1
 78
     8
 79
     2
140
3.5
141
0.0
143
0.0393701
146
0.71
147
1.5
172
     1
176
   256
177
   256
178
     2
271
     2
272
     3
274
     4
283
     0
284
     8
340
11
371
    -1
372
    -1
  0
ENDTAB
  0
TABLE
  2
BLOCK_RECORD
  5
1
330
0
100
AcDbSymbolTable
 70
    38
  0
BLOCK_RECORD
  5
1F
330
1
100
AcDbSymbolTableRecord
100
AcDbBlockTableRecord
  2
*Model_Space
340
22
  0
BLOCK_RECORD
  5
1B
330
1
100
AcDbSymbolTableRecord
100
AcDbBlockTableRecord
  2
*Paper_Space
340
1E
  0
BLOCK_RECORD
  5
23
330
1
100
AcDbSymbolTableRecord
100
AcDbBlockTableRecord
  2
*Paper_Space0
340
26
  0
BLOCK_RECORD
  5
919
330
1
100
AcDbSymbolTableRecord
100
AcDbBlockTableRecord
  2
_DotSmall
340
0
  0
BLOCK_RECORD
  5
922
330
1
100
AcDbSymbolTableRecord
100
AcDbBlockTableRecord
  2
base para cotas
340
0
310
2800000020000000200000000100080000000000000400000000000000000000000000000000000000000000000080000080000000808000800000008000800080800000C0C0C000C0DCC000F0CAA6000020400000206000002080000020A0000020C0000020E00000400000004020000040400000406000004080000040A0
310
000040C0000040E00000600000006020000060400000606000006080000060A0000060C0000060E00000800000008020000080400000806000008080000080A0000080C0000080E00000A0000000A0200000A0400000A0600000A0800000A0A00000A0C00000A0E00000C0000000C0200000C0400000C0600000C0800000C0
310
A00000C0C00000C0E00000E0000000E0200000E0400000E0600000E0800000E0A00000E0C00000E0E00040000000400020004000400040006000400080004000A0004000C0004000E00040200000402020004020400040206000402080004020A0004020C0004020E000404000004040200040404000404060004040800040
310
40A0004040C0004040E00040600000406020004060400040606000406080004060A0004060C0004060E00040800000408020004080400040806000408080004080A0004080C0004080E00040A0000040A0200040A0400040A0600040A0800040A0A00040A0C00040A0E00040C0000040C0200040C0400040C0600040C08000
310
40C0A00040C0C00040C0E00040E0000040E0200040E0400040E0600040E0800040E0A00040E0C00040E0E00080000000800020008000400080006000800080008000A0008000C0008000E00080200000802020008020400080206000802080008020A0008020C0008020E00080400000804020008040400080406000804080
310
008040A0008040C0008040E00080600000806020008060400080606000806080008060A0008060C0008060E00080800000808020008080400080806000808080008080A0008080C0008080E00080A0000080A0200080A0400080A0600080A0800080A0A00080A0C00080A0E00080C0000080C0200080C0400080C0600080C0
310
800080C0A00080C0C00080C0E00080E0000080E0200080E0400080E0600080E0800080E0A00080E0C00080E0E000C0000000C0002000C0004000C0006000C0008000C000A000C000C000C000E000C0200000C0202000C0204000C0206000C0208000C020A000C020C000C020E000C0400000C0402000C0404000C0406000C0
310
408000C040A000C040C000C040E000C0600000C0602000C0604000C0606000C0608000C060A000C060C000C060E000C0800000C0802000C0804000C0806000C0808000C080A000C080C000C080E000C0A00000C0A02000C0A04000C0A06000C0A08000C0A0A000C0A0C000C0A0E000C0C00000C0C02000C0C04000C0C06000
310
C0C08000C0C0A000F0FBFF00A4A0A000808080000000FF0000FF000000FFFF00FF000000FF00FF00FFFF0000FFFFFF00A4A4A4A4A4A4A4A4A4A4A4A4A4A4A4A4A4A4A4A4A4A4A4A4A4A4A4A4A4A4A4A4A4A4A4A4A4A4A4A4A4A4A4A4A4A4A4A4A4A4A4A4A4A4A4A4A4A4A4A4A4A4A4A4A4A4A4A4A4A4A4A4A4A4A4A4A4A4A4
310
A4A4A4A4A4A4A4A4A4A4A4A4A4A4A4A4A4A4A4A4A4A4A4A4A4A4A4A4A4A4A4A4A4A4A4A4A4A4A4A4A4A4A4A4A4A4A4A4A4A4A4A4A4A4A4A4A4A4A4A4A4A4A4A4A4A4A4A4A4A4A4A4A4A4A4A4A4A4A4A4A4A4A4A4A4A4A4A4A4A4A4A4A4A4A4A4A4A4A4A4A4A4A4A4A4A4A4A4A4A4A4A4A4A4A4A4A4A4A4A4A4A4A4A4A4A4A4
310
A4A4A4A4A4A4A4A4A4A4A4A4A4A4A4A4A4A4A4A4A4A4A4A4A4A4A4A4A4A4A4A4A4A4A4A4A4A4A4A4A4A4A4A4A4A4A4A4A4A4A4A4A4A4A4A4A4A4A4A4A4A4A4A4A4A4A4A4A4A4A4A4A4A4A4A4A4A4A4A4A4A4A4A4A4A4A4A4A4A4A4A4A4A4A4A4A4A4A4A4A4A4A4A4A4A4A4A4A4A4A4A4A4A4A4A4A4A4A4A4A4A4A4A4A4A4A4
310
A4A4A4A4A4A4A4A4A4A4A4A4A4A4A4A4A4A4A4A4A4A4A4A4A4A4A4A4A4A4A4A4A4A4A4A4A4A4A4A4A4A4A4A4A4A4A4A4A4A4A4A4A4A4A4A4A4A4A4A4A4A4A4A4A4A4A4A4A4A4A4A4A4A4A4A4A4A4A4A4A4A4A4A4A4A4A4A4A4A4A4A4A4A4A4A4A4A4A4A4A4A4A4A4A4A4A4A4A4A4A4A4A4A4A4A4F9F9F9F9F9F9F9F9F9F9F9
310
F9F9F9F9F9F9F9F9F9F9F9F9F9F9F9F9F9F9F9A4A4F9F9F9F9F9F9F9F9F9F9F9F9F9F9F9F9F9F9F9F9F9F9F9F9F9F9F9F9F9F9A4A4F9F9F9F9F9F9F9F9F9F9F9F9F9F9F9F9F9F9F9F9F9F9F9F9F9F9F9F9F9F9A4A4F9A4A4A4A4A4A4A4A4A4A4A4A4A4A4A4A4A4A4A4A4A4A4A4A4A4A4A4A4F9A4A4A4A4A4A4A4A4A4A4A4A4
310
A4A4A4A4A4A4A4A4A4A4A4A4A4A4A4A4A4A4A4A4A4A4A4A4A4A4A4A4A4A4A4A4A4A4A4A4A4A4A4A4A4A4A4A4A4A4A4A4A4A4A4A4A4A4A4A4A4A4A4A4A4A4A4A4A4A4A4A4A4A4A4A4A4A4A4A4A4A4A4A4A4A4A4A4A4A4A4A4A4A4A4A4A4A4A4A4A4A4A4A4A4A4A4A4A4A4A4A4A4A4A4A4A4A4A4A4A4A4A4A4A4A4A4A4A4A4A4
310
A4A4A4A4A4A4A4A4A4A4A4A4A4A4A4A4A4A4A4A4A4A4A4A4A4A4A4A4A4A4A4A4A4A4A4A4A4A4A4A4A4A4A4A4A4A4A4A4A4A4A4A4A4A4A4A4A4A4A4A4A4A4A4A4A4A4A4A4A4A4A4A4A4A4A4A4A4A4A4A4A4A4A4A4A4A4A4A4A4A4A4A4A4A4A4A4A4A4A4A4A4A4A4A4A4A4A4A4A4A4A4A4A4A4A4A4A4A4A4A4A4A4A4A4A4A4A4
310
A4A4A4A4A4A4A4A4A4A4A4A4A4A4A4A4A4A4A4A4A4A4A4A4A4A4A4A4A4A4A4A4A4A4A4A4A4A4A4A4A4A4A4A4A4A4A4A4A4A4A4A4A4A4A4A4A4A4A4A4A4A4A4A4A4A4A4A4A4A4A4A4A4A4A4A4A4A4A4A4A4A4A4A4A4A4A4A4A4A4A4A4A4A4A4A4A4A4A4A4A4A4A4A4A4A4A4A4A4A4A4A4A4A4A4A4A4A4A4A4A4A4A4A4A4A4A4
310
A4A4A4A4A4A4A4A4A4A4A4A4A4A4A4A4A4A4A4A4A4A4A4A4A4A4A4A4A4A4A4A4A4A4A4A4A4A4A4A4A4A4A4A4A4A4A4A4A4A4A4A4A4A4A4A4
1001
ACAD
1000
DesignCenter Data
1002
{
1070
     1
1070
     4
1002
}
  0
BLOCK_RECORD
  5
AA8
330
1
100
AcDbSymbolTableRecord
100
AcDbBlockTableRecord
  2
_CLOSED
340
0
  0
BLOCK_RECORD
  5
B79
330
1
100
AcDbSymbolTableRecord
100
AcDbBlockTableRecord
  2
nota revisoes
340
0
1001
ACAD
1000
DesignCenter Data
1002
{
1070
     1
1070
     4
1002
}
  0
BLOCK_RECORD
  5
B8E
330
1
100
AcDbSymbolTableRecord
100
AcDbBlockTableRecord
  2
a3l
340
0
1001
ACAD
1000
DesignCenter Data
1002
{
1070
     1
1070
     4
1002
}
  0
BLOCK_RECORD
  5
B9E
330
1
100
AcDbSymbolTableRecord
100
AcDbBlockTableRecord
  2
legenda desenvolvimento
340
0
1001
ACAD
1000
DesignCenter Data
1002
{
1070
     1
1070
     4
1002
}
  0
BLOCK_RECORD
  5
10BC
330
1
100
AcDbSymbolTableRecord
100
AcDbBlockTableRecord
  2
SW_CENTERMARKSYMBOL_0
340
0
  0
ENDTAB
  0
ENDSEC
  0
SECTION
  2
BLOCKS
  0
BLOCK
  5
20
330
1F
100
AcDbEntity
  8
0
100
AcDbBlockBegin
  2
*Model_Space
 70
     0
 10
0.0
 20
0.0
 30
0.0
  3
*Model_Space
  1

  0
ENDBLK
  5
21
330
1F
100
AcDbEntity
  8
0
100
AcDbBlockEnd
  0
BLOCK
  5
1C
330
1B
100
AcDbEntity
 67
     1
  8
0
100
AcDbBlockBegin
  2
*Paper_Space
 70
     0
 10
0.0
 20
0.0
 30
0.0
  3
*Paper_Space
  1

  0
ENDBLK
  5
1D
330
1B
100
AcDbEntity
 67
     1
  8
0
100
AcDbBlockEnd
  0
BLOCK
  5
24
330
23
100
AcDbEntity
 67
     1
  8
0
100
AcDbBlockBegin
  2
*Paper_Space0
 70
     0
 10
0.0
 20
0.0
 30
0.0
  3
*Paper_Space0
  1

  0
ENDBLK
  5
25
330
23
100
AcDbEntity
 67
     1
  8
0
100
AcDbBlockEnd
  0
BLOCK
  5
91B
330
919
100
AcDbEntity
  8
0
100
AcDbBlockBegin
  2
_DotSmall
 70
     0
 10
0.0
 20
0.0
 30
0.0
  3
_DotSmall
  1

  0
LWPOLYLINE
  5
91A
330
919
100
AcDbEntity
  8
0
  6
ByBlock
 62
     0
100
AcDbPolyline
 90
        2
 70
     1
 43
0.5
 10
-0.0625
 20
0.0
 42
1.0
 10
0.0625
 20
0.0
 42
1.0
  0
ENDBLK
  5
91C
330
919
100
AcDbEntity
  8
0
100
AcDbBlockEnd
  0
BLOCK
  5
92A
330
922
100
AcDbEntity
  8
0
100
AcDbBlockBegin
  2
base para cotas
 70
     0
 10
0.0
 20
0.0
 30
0.0
  3
base para cotas
  1

  0
LINE
  5
B36
330
922
100
AcDbEntity
  8
cotas
100
AcDbLine
 10
0.0
 20
-30.0
 30
0.0
 11
327.1260136525398
 21
-30.0
 31
0.0
  0
LINE
  5
B37
330
922
100
AcDbEntity
  8
cotas
100
AcDbLine
 10
0.0
 20
-25.0
 30
0.0
 11
327.1260136525398
 21
-25.0
 31
0.0
  0
LINE
  5
B38
330
922
100
AcDbEntity
  8
cotas
100
AcDbLine
 10
0.0
 20
-20.0
 30
0.0
 11
327.1260136525398
 21
-20.0
 31
0.0
  0
LINE
  5
B39
330
922
100
AcDbEntity
  8
cotas
100
AcDbLine
 10
0.0
 20
-15.0
 30
0.0
 11
327.1260136525398
 21
-15.0
 31
0.0
  0
LINE
  5
B3A
330
922
100
AcDbEntity
  8
cotas
100
AcDbLine
 10
0.0
 20
-10.0
 30
0.0
 11
327.1260136525398
 21
-10.0
 31
0.0
  0
LINE
  5
B3B
330
922
100
AcDbEntity
  8
cotas
100
AcDbLine
 10
0.0
 20
0.0
 30
0.0
 11
0.0
 21
-30.0
 31
0.0
  0
LINE
  5
B3C
330
922
100
AcDbEntity
  8
cotas
100
AcDbLine
 10
327.1260136525398
 20
-30.0
 30
0.0
 11
327.1260136525398
 21
0.0
 31
0.0
  0
ENDBLK
  5
92B
330
922
100
AcDbEntity
  8
0
100
AcDbBlockEnd
  0
BLOCK
  5
AAD
330
AA8
100
AcDbEntity
  8
0
100
AcDbBlockBegin
  2
_CLOSED
 70
     0
 10
0.0
 20
0.0
 30
0.0
  3
_CLOSED
  1

  0
LINE
  5
AA9
330
AA8
100
AcDbEntity
  8
0
100
AcDbLine
 10
-1.0
 20
0.166667
 30
0.0
 11
0.0
 21
0.0
 31
0.0
  0
LINE
  5
AAA
330
AA8
100
AcDbEntity
  8
0
100
AcDbLine
 10
0.0
 20
0.0
 30
0.0
 11
-1.0
 21
-0.166667
 31
0.0
  0
LINE
  5
AAB
330
AA8
100
AcDbEntity
  8
0
100
AcDbLine
 10
-1.0
 20
0.166667
 30
0.0
 11
-1.0
 21
-0.166667
 31
0.0
  0
LINE
  5
AAC
330
AA8
100
AcDbEntity
  8
0
100
AcDbLine
 10
0.0
 20
0.0
 30
0.0
 11
-1.0
 21
0.0
 31
0.0
  0
ENDBLK
  5
AAE
330
AA8
100
AcDbEntity
  8
0
100
AcDbBlockEnd
  0
BLOCK
  5
B7C
330
B79
100
AcDbEntity
  8
0
100
AcDbBlockBegin
  2
nota revisoes
 70
     0
 10
0.0
 20
0.0
 30
0.0
  3
nota revisoes
  1

  0
CIRCLE
  5
B7A
330
B79
100
AcDbEntity
  8
4
100
AcDbCircle
 10
0.0
 20
0.0
 30
0.0
 40
13.69426055101189
  0
TEXT
  5
B7B
330
B79
100
AcDbEntity
  8
4
100
AcDbText
 10
-5.496248358154345
 20
-5.354545554066362
 30
0.0
 40
12.0
  1
1
  7
SANINDUSA
 72
     1
 11
-0.249774214433728
 21
-5.354545554066362
 31
0.0
100
AcDbText
  0
ENDBLK
  5
B7D
330
B79
100
AcDbEntity
  8
0
100
AcDbBlockEnd
  0
BLOCK
  5
B9C
330
B8E
100
AcDbEntity
  8
0
100
AcDbBlockBegin
  2
a3l
 70
     0
 10
0.0
 20
0.0
 30
0.0
  3
a3l
  1

  0
LINE
  5
B8F
330
B8E
100
AcDbEntity
  8
1
100
AcDbLine
 10
-364.2925296599447
 20
-362.1188951399395
 30
0.0
 11
-364.2925296599447
 21
-65.11889513993946
 31
0.0
  0
LINE
  5
B90
330
B8E
100
AcDbEntity
  8
4
100
AcDbLine
 10
-369.2925296599447
 20
-357.1188951399395
 30
0.0
 11
-369.2925296599447
 21
-70.11889513993946
 31
0.0
  0
LINE
  5
B91
330
B8E
100
AcDbEntity
  8
1
100
AcDbLine
 10
-784.2925296599446
 20
-65.11889513993946
 30
0.0
 11
-784.2925296599446
 21
-362.1188951399395
 31
0.0
  0
LINE
  5
B92
330
B8E
100
AcDbEntity
  8
4
100
AcDbLine
 10
-759.2925296599446
 20
-357.1188951399395
 30
0.0
 11
-759.2925296599446
 21
-70.11889513993946
 31
0.0
  0
LINE
  5
B93
330
B8E
100
AcDbEntity
  8
1
100
AcDbLine
 10
-784.2925296599446
 20
-362.1188951399395
 30
0.0
 11
-364.2925296599447
 21
-362.1188951399395
 31
0.0
  0
LINE
  5
B94
330
B8E
100
AcDbEntity
  8
4
100
AcDbLine
 10
-759.2925296599446
 20
-357.1188951399395
 30
0.0
 11
-369.2925296599447
 21
-357.1188951399395
 31
0.0
  0
LINE
  5
B95
330
B8E
100
AcDbEntity
  8
1
100
AcDbLine
 10
-654.2925296599446
 20
-357.1188951399395
 30
0.0
 11
-654.2925296599446
 21
-362.1188951399395
 31
0.0
  0
LINE
  5
B96
330
B8E
100
AcDbEntity
  8
1
100
AcDbLine
 10
-364.2925296599447
 20
-65.11889513993946
 30
0.0
 11
-784.2925296599446
 21
-65.11889513993946
 31
0.0
  0
LINE
  5
B97
330
B8E
100
AcDbEntity
  8
4
100
AcDbLine
 10
-369.2925296599447
 20
-70.11889513993946
 30
0.0
 11
-759.2925296599446
 21
-70.11889513993946
 31
0.0
  0
LINE
  5
B98
330
B8E
100
AcDbEntity
  8
1
100
AcDbLine
 10
-654.2925296599446
 20
-65.11889513993946
 30
0.0
 11
-654.2925296599446
 21
-70.11889513993946
 31
0.0
  0
LINE
  5
B99
330
B8E
100
AcDbEntity
  8
1
100
AcDbLine
 10
-549.2925296599446
 20
-70.11889513993946
 30
0.0
 11
-549.2925296599446
 21
-65.11889513993946
 31
0.0
  0
LINE
  5
B9A
330
B8E
100
AcDbEntity
  8
1
100
AcDbLine
 10
-369.2925296599447
 20
-65.11889513993946
 30
0.0
 11
-364.2925296599447
 21
-65.11889513993946
 31
0.0
  0
LINE
  5
B9B
330
B8E
100
AcDbEntity
  8
1
100
AcDbLine
 10
-549.2925296599446
 20
-357.1188951399395
 30
0.0
 11
-549.2925296599446
 21
-362.1188951399395
 31
0.0
  0
ENDBLK
  5
B9D
330
B8E
100
AcDbEntity
  8
0
100
AcDbBlockEnd
  0
BLOCK
  5
C13
330
B9E
100
AcDbEntity
  8
0
100
AcDbBlockBegin
  2
legenda desenvolvimento
 70
     2
 10
0.0
 20
0.0
 30
0.0
  3
legenda desenvolvimento
  1

  0
ATTDEF
  5
B9F
330
B9E
100
AcDbEntity
  8
1
100
AcDbText
 10
-108.606245802552
 20
55.5
 30
0.0
 40
4.0
  1
XXXXXXXXXXXXXX
 41
0.8
  7
SANINDUSA
 72
     4
 11
-87.5
 21
57.5
 31
0.0
100
AcDbAttributeDefinition
  3
Nome do Produto:
  2
PRODUTO
 70
     0
  0
ATTDEF
  5
BA0
330
B9E
100
AcDbEntity
  8
1
100
AcDbText
 10
-97.9997966101695
 20
41.25
 30
0.0
 40
3.0
  1
XXXXXXXXX
 41
0.8
  7
futura
 72
     4
 11
-87.5
 21
42.75
 31
0.0
100
AcDbAttributeDefinition
  3
Nome da Peça:
  2
PECA
 70
     0
  0
ATTDEF
  5
BA1
330
B9E
100
AcDbEntity
  8
1
100
AcDbText
 10
-133.4422431161853
 20
21.11745296763252
 30
0.0
 40
2.5
  1
X
 41
0.8
  7
SANINDUSA
 72
     4
 11
-132.5
 21
22.36745296763252
 31
0.0
100
AcDbAttributeDefinition
  3
Cod. TESTE:
  2
TESTE
 70
     0
  0
ATTDEF
  5
BA2
330
B9E
100
AcDbEntity
  8
1
100
AcDbText
 10
-124.3844862323707
 20
21.11745296763252
 30
0.0
 40
2.5
  1
XX
 41
0.8
  7
SANINDUSA
 72
     4
 11
-122.5
 21
22.36745296763252
 31
0.0
100
AcDbAttributeDefinition
  3
Cod. Ano:
  2
ANO
 70
     0
  0
ATTDEF
  5
BA3
330
B9E
100
AcDbEntity
  8
1
100
AcDbText
 10
-112.526889953052
 20
21.11745296763252
 30
0.0
 40
2.5
  1
XXX
 41
0.8
  7
SANINDUSA
 72
     4
 11
-109.700160604496
 21
22.36745296763252
 31
0.0
100
AcDbAttributeDefinition
  3
Cod. Sequência:
  2
SEQUENCIA
 70
     0
  0
ATTDEF
  5
BA4
330
B9E
100
AcDbEntity
  8
1
100
AcDbText
 10
-99.35382430979316
 20
21.11745296763252
 30
0.0
 40
2.5
  1
XX
 41
0.8
  7
SANINDUSA
 72
     4
 11
-97.46933807742244
 21
22.36745296763252
 31
0.0
100
AcDbAttributeDefinition
  3
Cod. Tipo:
  2
TIPO
 70
     0
  0
ATTDEF
  5
BA5
330
B9E
100
AcDbEntity
  8
1
100
AcDbText
 10
-87.42035911468438
 20
21.11745296763252
 30
0.0
 40
2.5
  1
XXX
 41
0.8
  7
SANINDUSA
 72
     4
 11
-84.59362976612828
 21
22.36745296763252
 31
0.0
100
AcDbAttributeDefinition
  3
Cod. Produto:
  2
PRODUTO
 70
     0
  0
ATTDEF
  5
BA6
330
B9E
100
AcDbEntity
  8
1
100
AcDbText
 10
-74.62051971917853
 20
21.11745296763252
 30
0.0
 40
2.5
  1
XXX
 41
0.8
  7
SANINDUSA
 72
     4
 11
-71.79379037062244
 21
22.36745296763252
 31
0.0
100
AcDbAttributeDefinition
  3
Cod. Peça:
  2
PECA
 70
     0
  0
ATTDEF
  5
BA7
330
B9E
100
AcDbEntity
  8
1
100
AcDbText
 10
-61.10603446650329
 20
21.11745296763252
 30
0.0
 40
2.5
  1
XX
 41
0.8
  7
SANINDUSA
 72
     4
 11
-59.22154823413257
 21
22.36745296763252
 31
0.0
100
AcDbAttributeDefinition
  3
Cod. Revisão:
  2
REV
 70
     0
  0
ATTDEF
  5
BA8
330
B9E
100
AcDbEntity
  8
1
100
AcDbText
 10
-48.43615325006194
 20
21.11745296763252
 30
0.0
 40
2.5
  1
XX
 41
0.8
  7
SANINDUSA
 72
     4
 11
-46.55166701769121
 21
22.36745296763252
 31
0.0
100
AcDbAttributeDefinition
  3
Cod. Alteração:
  2
ALT
 70
     0
  0
ATTDEF
  5
BA9
330
B9E
100
AcDbEntity
  8
1
100
AcDbText
 10
-35.19086635325722
 20
23.98875083948959
 30
0.0
 40
3.0
  1
1/XXX
 41
0.8
  7
SANINDUSA
 72
     4
 11
-30.0
 21
25.25
 31
0.0
100
AcDbAttributeDefinition
  3
Escala geral:
  2
ESCALA
 70
     0
  0
ATTDEF
  5
BAA
330
B9E
100
AcDbEntity
  8
1
100
AcDbText
 10
-15.65345869711215
 20
23.75
 30
0.0
 40
3.0
  1
XXXXX
 41
0.8
  7
SANINDUSA
 72
     4
 11
-10.0
 21
25.25
 31
0.0
100
AcDbAttributeDefinition
  3
Folha:
  2
FOLHA
 70
     0
  0
ATTDEF
  5
BAB
330
B9E
100
AcDbEntity
  8
1
100
AcDbText
 10
-178.5146998822042
 20
56.9531347542807
 30
0.0
 40
2.0
  1
xx
 41
0.8
  7
SANINDUSA
 72
     4
 11
-177.2123493113513
 21
57.70330265219877
 31
0.0
100
AcDbAttributeDefinition
  3
revisão
  2
REV.
 70
     0
  0
ATTDEF
  5
BAC
330
B9E
100
AcDbEntity
  8
1
100
AcDbText
 10
-172.7849640077129
 20
56.9531347542807
 30
0.0
 40
2.0
  1
xx
 41
0.8
  7
SANINDUSA
 72
     4
 11
-171.48261343686
 21
57.70330265219877
 31
0.0
100
AcDbAttributeDefinition
  3
alteração
  2
ALT.
 70
     0
  0
ATTDEF
  5
BAD
330
B9E
100
AcDbEntity
  8
1
100
AcDbText
 10
-168.007199951307
 20
56.70330265219877
 30
0.0
 40
2.0
  1
xx/xx/xxxx
 41
0.8
  7
SANINDUSA
 11
-168.007199951307
 21
57.70330265219877
 31
0.0
100
AcDbAttributeDefinition
  3
data
  2
DATA
 70
     0
 74
     2
  0
ATTDEF
  5
BAE
330
B9E
100
AcDbEntity
  8
1
100
AcDbText
 10
-168.5396372253371
 20
13.15916722632639
 30
0.0
 40
2.0
  1
XX/XX/XXXX
 41
0.8
  7
SANINDUSA
 72
     4
 11
-161.5099528734231
 21
14.0
 31
0.0
100
AcDbAttributeDefinition
  3
Data projecto
  2
DATA_PROJ
 70
     0
  0
ATTDEF
  5
BAF
330
B9E
100
AcDbEntity
  8
1
100
AcDbText
 10
-150.8658110728766
 20
13.24983210208193
 30
0.0
 40
2.0
  1
xxxxxxxx
 41
0.8
  7
SANINDUSA
 72
     4
 11
-145.6564087894649
 21
14.0
 31
0.0
100
AcDbAttributeDefinition
  3
nome de quem projectou
  2
NOME
 70
     0
  0
ATTDEF
  5
BB0
330
B9E
100
AcDbEntity
  8
1
100
AcDbText
 10
-168.5396372253371
 20
9.159167226326394
 30
0.0
 40
2.0
  1
XX/XX/XXXX
 41
0.8
  7
SANINDUSA
 72
     4
 11
-161.5099528734231
 21
10.0
 31
0.0
100
AcDbAttributeDefinition
  3
Data desenhou
  2
DATA_DES
 70
     0
  0
ATTDEF
  5
BB1
330
B9E
100
AcDbEntity
  8
1
100
AcDbText
 10
-151.516986358303
 20
9.249832102081933
 30
0.0
 40
2.0
  1
xxxxxxxxx
 41
0.8
  7
SANINDUSA
 72
     4
 11
-145.6564087894649
 21
10.0
 31
0.0
100
AcDbAttributeDefinition
  3
nome
  2
NOME
 70
     0
  0
ATTDEF
  5
BB2
330
B9E
100
AcDbEntity
  8
1
100
AcDbText
 10
-127.2924214135946
 20
14.1979876583216
 30
0.0
 40
2.0
  1
Vitreous China
 41
0.8
  7
SANINDUSA
 72
     4
 11
-119.231709526422
 21
15.22216495852308
 31
0.0
100
AcDbAttributeDefinition
  3
Nome do Material:
  2
MATERIAL
 70
     0
  0
ATTDEF
  5
BB3
330
B9E
100
AcDbEntity
  8
1
100
AcDbText
 10
-103.1563452122093
 20
14.38019043949261
 30
0.0
 40
2.0
  1
Branco
 41
0.8
  7
SANINDUSA
 72
     4
 11
-99.33418268702462
 21
15.35937109765245
 31
0.0
100
AcDbAttributeDefinition
  3
cor da peça
  2
COR
 70
     0
  0
ATTDEF
  5
BB4
330
B9E
100
AcDbEntity
  8
1
100
AcDbText
 10
-116.7235057085292
 20
5.975822699798522
 30
0.0
 40
2.0
  1
Vidrado
 41
0.8
  7
SANINDUSA
 72
     4
 11
-112.5
 21
7.0
 31
0.0
100
AcDbAttributeDefinition
  3
Tipo de acabamento:
  2
ACABAMENTO
 70
     0
  0
ATTDEF
  5
BB5
330
B9E
100
AcDbEntity
  8
1
100
AcDbText
 10
-79.18527869967246
 20
16.65066409850533
 30
0.0
 40
2.0
  1
XXXXXXX
 41
0.8
  7
SANINDUSA
 72
     4
 11
-73.90871724903445
 21
17.65066409850533
 31
0.0
100
AcDbAttributeDefinition
  3
Normas
  2
NORMAS
 70
     0
  0
ATTDEF
  5
BB6
330
B9E
100
AcDbEntity
  8
1
100
AcDbText
 10
-30.55312290127603
 20
14.0
 30
0.0
 40
2.0
  1
XXXXXXXXXXXXXX
 41
0.8
  7
SANINDUSA
 72
     4
 11
-20.0
 21
15.0
 31
0.0
100
AcDbAttributeDefinition
  3
Substitui o desenho:
  2
SUBSTITUI
 70
     0
  0
ATTDEF
  5
BB7
330
B9E
100
AcDbEntity
  8
1
100
AcDbText
 10
-31.30691739422431
 20
6.0
 30
0.0
 40
2.0
  1
XXXXXXXXXXXXXXX
 41
0.8
  7
SANINDUSA
 72
     4
 11
-20.0
 21
7.0
 31
0.0
100
AcDbAttributeDefinition
  3
Substituido por:
  2
SUBSTITUIDO
 70
     0
  0
ATTDEF
  5
BB8
330
B9E
100
AcDbEntity
  8
1
100
AcDbText
 10
-110.0220608548302
 20
1.478208457928303
 30
0.0
 40
2.0
  1
XXXXXXXXXXXXXXXXXXXXXXXXXXXXXXXXXX
 41
0.8
  7
SANINDUSA
 11
-110.0220608548302
 21
2.478208457928303
 31
0.0
100
AcDbAttributeDefinition
  3
Localização do desenho:
  2
LOC-DWG
 70
     0
 74
     2
  0
LINE
  5
BB9
330
B9E
100
AcDbEntity
  8
3
100
AcDbLine
 10
-135.0
 20
4.0
 30
0.0
 11
0.0000000000004547
 21
4.0
 31
0.0
  0
LINE
  5
BBA
330
B9E
100
AcDbEntity
  8
3
100
AcDbLine
 10
-90.00000000000046
 20
12.0
 30
0.0
 11
-135.0
 21
12.0
 31
0.0
  0
LINE
  5
BBB
330
B9E
100
AcDbEntity
  8
3
100
AcDbLine
 10
-135.0
 20
32.5
 30
0.0
 11
-40.0
 21
32.5
 31
0.0
  0
TEXT
  5
BBC
330
B9E
100
AcDbEntity
  8
1
100
AcDbText
 10
-134.0
 20
1.25
 30
0.0
 40
2.0
  1
Localização do des.:
 41
0.8
  7
SANINDUSA
 11
-134.0
 21
2.25
 31
0.0
100
AcDbText
 73
     2
  0
LINE
  5
BBD
330
B9E
100
AcDbEntity
  8
3
100
AcDbLine
 10
-180.0
 20
65.0
 30
0.0
 11
0.0
 21
65.0
 31
0.0
  0
LINE
  5
BBE
330
B9E
100
AcDbEntity
  8
leg fin
100
AcDbLine
 10
-40.0
 20
25.05956924886846
 30
0.0
 11
-135.0
 21
25.05956924886846
 31
0.0
  0
LINE
  5
BBF
330
B9E
100
AcDbEntity
  8
leg fin
100
AcDbLine
 10
-40.0
 20
28.5
 30
0.0
 11
-135.0
 21
28.5
 31
0.0
  0
LINE
  5
BC0
330
B9E
100
AcDbEntity
  8
3
100
AcDbLine
 10
-135.0
 20
50.0
 30
0.0
 11
-40.0
 21
50.0
 31
0.0
  0
TEXT
  5
BC1
330
B9E
100
AcDbEntity
  8
1
100
AcDbText
 10
-134.0
 20
29.75
 30
0.0
 40
2.0
  1
Desenho nº:
 41
0.8
  7
SANINDUSA
 11
-134.0
 21
30.75
 31
0.0
100
AcDbText
 73
     2
  0
TEXT
  5
BC2
330
B9E
100
AcDbEntity
  8
1
100
AcDbText
 10
-134.0
 20
9.25
 30
0.0
 40
2.0
  1
Acabamento:
 41
0.8
  7
SANINDUSA
 11
-134.0
 21
10.25
 31
0.0
100
AcDbText
 73
     2
  0
LINE
  5
BC3
330
B9E
100
AcDbEntity
  8
3
100
AcDbLine
 10
-180.0
 20
20.0
 30
0.0
 11
0.0
 21
20.0
 31
0.0
  0
LINE
  5
BC4
330
B9E
100
AcDbEntity
  8
1
100
AcDbLine
 10
-174.5810776056337
 20
55.5
 30
0.0
 11
-174.5810776056337
 21
65.0
 31
0.0
  0
LINE
  5
BC5
330
B9E
100
AcDbEntity
  8
1
100
AcDbLine
 10
-168.9210461879161
 20
55.5
 30
0.0
 11
-168.9210461879161
 21
65.0
 31
0.0
  0
LINE
  5
BC6
330
B9E
100
AcDbEntity
  8
1
100
AcDbLine
 10
-154.0988595589306
 20
55.5
 30
0.0
 11
-154.0988595589306
 21
65.0
 31
0.0
  0
LINE
  5
BC7
330
B9E
100
AcDbEntity
  8
3
100
AcDbLine
 10
-180.0
 20
65.0
 30
0.0
 11
-180.0
 21
0.0
 31
0.0
  0
LINE
  5
BC8
330
B9E
100
AcDbEntity
  8
3
100
AcDbLine
 10
-135.0
 20
0.0
 30
0.0
 11
-135.0
 21
65.0
 31
0.0
  0
TEXT
  5
BC9
330
B9E
100
AcDbEntity
  8
1
100
AcDbText
 10
-179.0
 20
9.75
 30
0.0
 40
1.5
  1
Des.
 41
0.8
  7
SANINDUSA
 11
-179.0
 21
10.5
 31
0.0
100
AcDbText
 73
     2
  0
LINE
  5
BCA
330
B9E
100
AcDbEntity
  8
1
100
AcDbLine
 10
-168.9210461879161
 20
20.0
 30
0.0
 11
-168.9210461879161
 21
0.0
 31
0.0
  0
LINE
  5
BCB
330
B9E
100
AcDbEntity
  8
1
100
AcDbLine
 10
-154.0988595589306
 20
20.0
 30
0.0
 11
-154.0988595589306
 21
0.0
 31
0.0
  0
LINE
  5
BCC
330
B9E
100
AcDbEntity
  8
1
100
AcDbLine
 10
-180.0
 20
4.0
 30
0.0
 11
-135.0
 21
4.0
 31
0.0
  0
LINE
  5
BCD
330
B9E
100
AcDbEntity
  8
1
100
AcDbLine
 10
-180.0
 20
8.0
 30
0.0
 11
-135.0
 21
8.0
 31
0.0
  0
TEXT
  5
BCE
330
B9E
100
AcDbEntity
  8
1
100
AcDbText
 10
-179.0
 20
1.73257823687436
 30
0.0
 40
1.5
  1
Aprov.
 41
0.8
  7
SANINDUSA
 11
-179.0
 21
2.48257823687436
 31
0.0
100
AcDbText
 73
     2
  0
TEXT
  5
BCF
330
B9E
100
AcDbEntity
  8
1
100
AcDbText
 10
-179.0
 20
5.75
 30
0.0
 40
1.5
  1
Ver.
 41
0.8
  7
SANINDUSA
 11
-179.0
 21
6.5
 31
0.0
100
AcDbText
 73
     2
  0
LINE
  5
BD0
330
B9E
100
AcDbEntity
  8
1
100
AcDbLine
 10
-180.0
 20
16.0
 30
0.0
 11
-135.0
 21
16.0
 31
0.0
  0
LINE
  5
BD1
330
B9E
100
AcDbEntity
  8
1
100
AcDbLine
 10
-180.0
 20
12.0
 30
0.0
 11
-135.0
 21
12.0
 31
0.0
  0
TEXT
  5
BD2
330
B9E
100
AcDbEntity
  8
1
100
AcDbText
 10
-179.0
 20
13.75
 30
0.0
 40
1.5
  1
Proj.
 41
0.8
  7
SANINDUSA
 11
-179.0
 21
14.5
 31
0.0
100
AcDbText
 73
     2
  0
TEXT
  5
BD3
330
B9E
100
AcDbEntity
  8
1
100
AcDbText
 10
-167.9210461879161
 20
17.75
 30
0.0
 40
1.5
  1
Data
 41
0.8
  7
SANINDUSA
 11
-167.9210461879161
 21
18.5
 31
0.0
100
AcDbText
 73
     2
  0
TEXT
  5
BD4
330
B9E
100
AcDbEntity
  8
1
100
AcDbText
 10
-153.0988595589306
 20
17.75
 30
0.0
 40
1.5
  1
Nome
 41
0.8
  7
SANINDUSA
 11
-153.0988595589306
 21
18.5
 31
0.0
100
AcDbText
 73
     2
  0
LINE
  5
BD5
330
B9E
100
AcDbEntity
  8
leg fin
100
AcDbLine
 10
-130.0
 20
20.0
 30
0.0
 11
-130.0
 21
28.5
 31
0.0
  0
TEXT
  5
BD6
330
B9E
100
AcDbEntity
  8
1
100
AcDbText
 10
-134.0
 20
17.25
 30
0.0
 40
2.0
  1
Material:
 41
0.8
  7
SANINDUSA
 11
-134.0
 21
18.25
 31
0.0
100
AcDbText
 73
     2
  0
TEXT
  5
BD7
330
B9E
100
AcDbEntity
  8
1
100
AcDbText
 10
-129.0
 20
26.43288406845113
 30
0.0
 40
1.5
  1
Ano:
 41
0.8
  7
SANINDUSA
 11
-129.0
 21
27.18288406845113
 31
0.0
100
AcDbText
 73
     2
  0
LINE
  5
BD8
330
B9E
100
AcDbEntity
  8
1
100
AcDbLine
 10
-180.0
 20
55.5
 30
0.0
 11
-135.0
 21
55.5
 31
0.0
  0
TEXT
  5
BD9
330
B9E
100
AcDbEntity
  8
1
100
AcDbText
 10
-179.0
 20
52.67772246885193
 30
0.0
 40
1.5
  1
descrição
 41
0.8
  7
SANINDUSA
 11
-179.0
 21
53.42772246885193
 31
0.0
100
AcDbText
 73
     2
  0
TEXT
  5
BDA
330
B9E
100
AcDbEntity
  8
1
100
AcDbText
 10
-134.0
 20
47.25
 30
0.0
 40
2.0
  1
Peça:
 41
0.8
  7
SANINDUSA
 11
-134.0
 21
48.25
 31
0.0
100
AcDbText
 73
     2
  0
LINE
  5
BDB
330
B9E
100
AcDbEntity
  8
1
100
AcDbLine
 10
-180.0
 20
59.5
 30
0.0
 11
-135.0
 21
59.5
 31
0.0
  0
TEXT
  5
BDC
330
B9E
100
AcDbEntity
  8
1
100
AcDbText
 10
-173.5810776056337
 20
62.75
 30
0.0
 40
1.5
  1
Alt.
 41
0.8
  7
SANINDUSA
 11
-173.5810776056337
 21
63.5
 31
0.0
100
AcDbText
 73
     2
  0
TEXT
  5
BDD
330
B9E
100
AcDbEntity
  8
1
100
AcDbText
 10
-179.0
 20
62.75
 30
0.0
 40
1.5
  1
Rev.
 41
0.8
  7
SANINDUSA
 11
-179.0
 21
63.5
 31
0.0
100
AcDbText
 73
     2
  0
TEXT
  5
BDE
330
B9E
100
AcDbEntity
  8
1
100
AcDbText
 10
-167.9210461879161
 20
62.75
 30
0.0
 40
1.5
  1
Data
 41
0.8
  7
SANINDUSA
 11
-167.9210461879161
 21
63.5
 31
0.0
100
AcDbText
 73
     2
  0
TEXT
  5
BDF
330
B9E
100
AcDbEntity
  8
1
100
AcDbText
 10
-153.0988595589306
 20
62.75
 30
0.0
 40
1.5
  1
Nome
 41
0.8
  7
SANINDUSA
 11
-153.0988595589306
 21
63.5
 31
0.0
100
AcDbText
 73
     2
  0
TEXT
  5
BE0
330
B9E
100
AcDbEntity
  8
1
100
AcDbText
 10
-134.0
 20
62.25
 30
0.0
 40
2.0
  1
Produto:
 41
0.8
  7
SANINDUSA
 11
-134.0
 21
63.25
 31
0.0
100
AcDbText
 73
     2
  0
LINE
  5
BE1
330
B9E
100
AcDbEntity
  8
3
100
AcDbLine
 10
-40.0
 20
4.0
 30
0.0
 11
-40.0
 21
65.0
 31
0.0
  0
LWPOLYLINE
  5
BE2
102
{ACAD_REACTORS
330
BEC
102
}
330
B9E
100
AcDbEntity
  8
9
100
AcDbPolyline
 90
       12
 70
     1
 43
0.0
 10
-3.038714600644652
 20
58.90010174665076
 10
-5.726962862472191
 20
58.90010174665076
 10
-5.726962862472191
 20
58.5001017466509
 10
-3.038748516195028
 20
58.5001017466509
 42
-0.4142135623731731
 10
-2.638748516194482
 20
58.1001017466508
 10
-2.638748516194482
 20
57.42799728675596
 10
-5.21497371544865
 20
57.42799728675596
 42
0.4142135623731289
 10
-6.014973715448377
 20
56.627997286756
 10
-6.014973715448377
 20
55.92380871629643
 42
0.4142135623731132
 10
-5.21497371544865
 20
55.12380871629648
 10
-2.23871460064447
 20
55.12380871629648
 10
-2.23871460064447
 20
58.10010174665103
 42
0.4142135623730717
  0
LWPOLYLINE
  5
BE3
102
{ACAD_REACTORS
330
BEC
102
}
330
B9E
100
AcDbEntity
  8
9
100
AcDbPolyline
 90
       20
 70
     1
 43
0.0
 10
-10.01531287095122
 20
57.82799728675581
 10
-10.01531287095122
 20
58.10010174665103
 42
-0.4142135623730744
 10
-9.615312870951584
 20
58.5001017466509
 10
-6.92703069357276
 20
58.5001017466509
 10
-6.92703069357276
 20
58.90010174665076
 10
-9.615346786501959
 20
58.90010174665076
 42
0.4142135623730883
 10
-10.41534678650168
 20
58.1001017466508
 10
-10.41534678650168
 20
57.82796337120567
 42
0.4142135623730717
 10
-9.615346786501959
 20
57.02796337120571
 10
-7.423079531965413
 20
57.02796337120571
 42
-0.4142135623730847
 10
-7.023079531965322
 20
56.62796337120562
 10
-7.023079531965322
 20
55.90786840766487
 42
-0.4142135623730744
 10
-7.423079531965413
 20
55.507868407665
 10
-10.41534678650168
 20
55.507868407665
 10
-10.41534678650168
 20
55.12380871629648
 10
-7.445787917283723
 20
55.12380871629648
 42
0.4114777732064574
 10
-6.645822882998345
 20
55.9163291493976
 10
-6.639238813324936
 20
56.62051771985716
 42
0.4169546541682913
 10
-7.439203847610315
 20
57.42799728675596
 10
-9.615312870951584
 20
57.42799728675596
 42
-0.4142135623731576
  0
LWPOLYLINE
  5
BE4
102
{ACAD_REACTORS
330
BEC
102
}
330
B9E
100
AcDbEntity
  8
9
100
AcDbPolyline
 90
       12
 70
     1
 43
0.0
 10
-14.41561811090378
 20
58.90010174665076
 10
-14.79964388672215
 20
58.90010174665076
 10
-14.79964388672215
 20
55.92380871629643
 42
0.4142135623731133
 10
-13.99964388672242
 20
55.12380871629648
 10
-11.8233508563676
 20
55.12380871629648
 42
0.4142135623730872
 10
-11.02335085636741
 20
55.92380871629643
 10
-11.02335085636741
 20
58.90010174665076
 10
-11.42338477191788
 20
58.90010174665076
 10
-11.42338477191788
 20
55.91567577726095
 42
-0.4131711701795318
 10
-11.82196067063523
 20
55.51567831234956
 10
-14.0141940096214
 20
55.50787335710947
 42
-0.4152567234624407
 10
-14.41561811090378
 20
55.90787082202087
  0
LWPOLYLINE
  5
BE5
102
{ACAD_REACTORS
330
BEC
102
}
330
B9E
100
AcDbEntity
  8
9
100
AcDbPolyline
 90
        6
 70
     1
 43
0.0
 10
-15.80771578768872
 20
55.507868407665
 10
-18.39994912667453
 20
55.507868407665
 42
-0.4142135623731731
 10
-18.79994912667462
 20
55.90786840766487
 10
-18.79994912667462
 20
58.10010174665103
 42
-0.4142135623730744
 10
-18.39994912667453
 20
58.5001017466509
 10
-15.80771578768872
 20
58.5001017466509
  0
LWPOLYLINE
  5
BE6
102
{ACAD_REACTORS
330
BEC
102
}
330
B9E
100
AcDbEntity
  8
9
100
AcDbPolyline
 90
        8
 70
     1
 43
0.0
 10
-15.4236900118708
 20
59.87619128370352
 10
-15.80771578768872
 20
59.87619128370352
 10
-15.80771578768872
 20
58.90010174665076
 10
-18.39176256411201
 20
58.90010174665076
 42
0.4131164467977967
 10
-19.19175694739761
 20
58.1030995310698
 10
-19.1999120763262
 20
55.92680650071542
 42
0.4153115297271718
 10
-18.39991769304061
 20
55.12380871629648
 10
-15.4236900118708
 20
55.12380871629648
  0
LWPOLYLINE
  5
BE7
102
{ACAD_REACTORS
330
BEC
102
}
330
B9E
100
AcDbEntity
  8
9
100
AcDbPolyline
 90
       10
 70
     1
 43
0.0
 10
-20.59201288790928
 20
58.90010174665076
 10
-23.56830591826338
 20
58.90010174665076
 10
-23.56830591826338
 20
55.12380871629648
 10
-23.18424622689509
 20
55.12380871629648
 10
-23.18424622689509
 20
58.5001017466509
 10
-20.59204680345965
 20
58.5001017466509
 42
-0.4142135623730898
 10
-20.19204680345956
 20
58.1001017466508
 10
-20.19204680345956
 20
55.12380871629648
 10
-19.79201288790909
 20
55.12380871629648
 10
-19.79201288790909
 20
58.10010174665103
 42
0.4142135623731132
  0
LWPOLYLINE
  5
BE8
102
{ACAD_REACTORS
330
BEC
102
}
330
B9E
100
AcDbEntity
  8
9
100
AcDbPolyline
 90
        4
 70
     1
 43
0.0
 10
-24.19231812786165
 20
58.90010174665076
 10
-24.57637781922995
 20
58.90010174665076
 10
-24.57637781922995
 20
55.12380871629648
 10
-24.19231812786165
 20
55.12380871629648
  0
LWPOLYLINE
  5
BE9
102
{ACAD_REACTORS
330
BEC
102
}
330
B9E
100
AcDbEntity
  8
9
100
AcDbPolyline
 90
       10
 70
     1
 43
0.0
 10
-28.57661522808212
 20
58.5001017466509
 10
-25.98444972019706
 20
58.5001017466509
 42
-0.4142135623731731
 10
-25.58444972019652
 20
58.1001017466508
 10
-25.58444972019652
 20
55.12380871629648
 10
-25.2004239443786
 20
55.12380871629648
 10
-25.2004239443786
 20
58.10010174665103
 42
0.4142135623730717
 10
-26.00042394437833
 20
58.90010174665076
 10
-28.97664914363259
 20
58.90010174665076
 10
-28.97664914363259
 20
55.12380871629648
 10
-28.57661522808212
 20
55.12380871629648
  0
LWPOLYLINE
  5
BEA
102
{ACAD_REACTORS
330
BEC
102
}
330
B9E
100
AcDbEntity
  8
9
100
AcDbPolyline
 90
       12
 70
     1
 43
0.0
 10
-29.58465321349832
 20
58.10010174665103
 42
0.4142135623730716
 10
-30.3846532134985
 20
58.90010174665076
 10
-33.07296930642724
 20
58.90010174665076
 10
-33.07296930642724
 20
58.5001017466509
 10
-30.38468712904842
 20
58.5001017466509
 42
-0.4142135623730067
 10
-29.98468712904878
 20
58.1001017466508
 10
-29.98468712904878
 20
57.42799728675618
 10
-32.56098015940324
 20
57.42799728675596
 42
0.4142135623731289
 10
-33.36098015940343
 20
56.627997286756
 10
-33.36098015940343
 20
55.92380871629643
 42
0.4142135623731132
 10
-32.56098015940324
 20
55.12380871629648
 10
-29.58465321349832
 20
55.12380871629648
  0
LWPOLYLINE
  5
BEB
102
{ACAD_REACTORS
330
BEC
102
}
330
B9E
100
AcDbEntity
  8
9
100
AcDbPolyline
 90
       20
 70
     1
 43
0.0
 10
-34.7850262845518
 20
57.42799728675596
 10
-36.96125148380543
 20
57.42799728675596
 42
-0.4142135623730898
 10
-37.36125148380552
 20
57.82799728675604
 10
-37.36125148380552
 20
58.10010174665103
 42
-0.4142135623730744
 10
-36.96125148380543
 20
58.5001017466509
 10
-34.27303713752781
 20
58.50010174665067
 10
-34.27303713752781
 20
58.90010174665076
 10
-36.96128539935535
 20
58.90010174665076
 42
0.4142135623731289
 10
-37.76128539935553
 20
58.1001017466508
 10
-37.76128539935553
 20
57.82796337120567
 42
0.4142135623730716
 10
-36.9612853993558
 20
57.02796337120571
 10
-34.76901814481926
 20
57.02796337120571
 42
-0.414213562373168
 10
-34.36901814481962
 20
56.62796337120562
 10
-34.36901814481962
 20
55.90786840766487
 42
-0.4142135623730744
 10
-34.76901814481926
 20
55.507868407665
 10
-37.76128539935553
 20
55.507868407665
 10
-37.76128539935553
 20
55.12380871629648
 10
-34.7850262845518
 20
55.12380871629648
 42
0.4142135623731289
 10
-33.98502628455162
 20
55.92380871629643
 10
-33.98502628455162
 20
56.627997286756
 42
0.4142135623731132
  0
HATCH
  5
BEC
330
B9E
100
AcDbEntity
  8
9
100
AcDbHatch
 10
0.0
 20
0.0
 30
0.0
210
0.0
220
0.0
230
1.0
  2
SOLID
 70
     1
 71
     1
 91
       13
 92
        7
 72
     1
 73
     1
 93
       20
 10
-34.36901814481962
 20
55.90786840766487
 42
-0.414213562372991
 10
-34.76901814481926
 20
55.507868407665
 42
0.0
 10
-37.76128539935553
 20
55.507868407665
 42
0.0
 10
-37.76128539935553
 20
55.12380871629648
 42
0.0
 10
-34.7850262845518
 20
55.12380871629648
 42
0.4142135623731705
 10
-33.98502628455162
 20
55.92380871629666
 42
0.0
 10
-33.98502628455162
 20
56.627997286756
 42
0.4142135623731547
 10
-34.7850262845518
 20
57.42799728675596
 42
0.0
 10
-36.96125148380543
 20
57.42799728675596
 42
-0.4142135623730898
 10
-37.36125148380552
 20
57.82799728675604
 42
0.0
 10
-37.36125148380552
 20
58.1001017466508
 42
-0.4142135623731575
 10
-36.96125148380543
 20
58.5001017466509
 42
0.0
 10
-34.27303713752781
 20
58.50010174665067
 42
0.0
 10
-34.27303713752781
 20
58.90010174665076
 42
0.0
 10
-36.96128539935535
 20
58.90010174665076
 42
0.4142135623731705
 10
-37.76128539935553
 20
58.10010174665058
 42
0.0
 10
-37.76128539935553
 20
57.82796337120544
 42
0.4142135623730299
 10
-36.9612853993558
 20
57.02796337120571
 42
0.0
 10
-34.76901814481926
 20
57.02796337120571
 42
-0.4142135623730015
 10
-34.36901814481962
 20
56.62796337120608
 42
0.0
 97
        1
330
BEB
 92
        7
 72
     1
 73
     1
 93
       12
 10
-33.36098015940343
 20
55.92380871629666
 42
0.4142135623731547
 10
-32.56098015940324
 20
55.12380871629648
 42
0.0
 10
-29.58465321349877
 20
55.12380871629648
 42
0.0
 10
-29.58465321349832
 20
58.10010174665058
 42
0.4142135623731964
 10
-30.3846532134985
 20
58.90010174665076
 42
0.0
 10
-33.07296930642724
 20
58.90010174665076
 42
0.0
 10
-33.07296930642724
 20
58.50010174665067
 42
0.0
 10
-30.38468712904887
 20
58.5001017466509
 42
-0.4142135623732564
 10
-29.98468712904878
 20
58.10010174665103
 42
0.0
 10
-29.98468712904923
 20
57.42799728675596
 42
0.0
 10
-32.56098015940324
 20
57.42799728675596
 42
0.4142135623731705
 10
-33.36098015940343
 20
56.627997286756
 42
0.0
 97
        1
330
BEA
 92
       22
 72
     1
 73
     1
 93
        6
 10
-32.97692046803468
 20
56.62796337120562
 42
-0.4142135623731576
 10
-32.57692046803459
 20
57.02796337120571
 42
0.0
 10
-29.98468712904878
 20
57.02796337120571
 42
0.0
 10
-29.98468712904878
 20
55.507868407665
 42
0.0
 10
-32.57692046803459
 20
55.507868407665
 42
-0.4142135623731731
 10
-32.97692046803468
 20
55.90786840766487
 42
0.0
 97
        1
330
C11
 92
        7
 72
     1
 73
     1
 93
       10
 10
-28.57661522808212
 20
58.5001017466509
 42
0.0
 10
-25.98444972019661
 20
58.5001017466509
 42
-0.4142135623730067
 10
-25.58444972019652
 20
58.10010174665058
 42
0.0
 10
-25.58444972019606
 20
55.12380871629648
 42
0.0
 10
-25.20042394437906
 20
55.12380871629648
 42
0.0
 10
-25.2004239443786
 20
58.1001017466508
 42
0.4142135623731134
 10
-26.00042394437833
 20
58.90010174665076
 42
0.0
 10
-28.97664914363259
 20
58.90010174665076
 42
0.0
 10
-28.97664914363259
 20
55.12380871629648
 42
0.0
 10
-28.57661522808212
 20
55.12380871629648
 42
0.0
 97
        1
330
BE9
 92
        7
 72
     0
 73
     1
 93
        4
 10
-24.57637781922995
 20
55.12380871629648
 10
-24.19231812786165
 20
55.12380871629648
 10
-24.19231812786165
 20
58.90010174665076
 10
-24.57637781922995
 20
58.90010174665076
 97
        1
330
BE8
 92
        7
 72
     0
 73
     1
 93
        4
 10
-24.19231812786165
 20
59.87619128370352
 10
-24.5763778192304
 20
59.87619128370352
 10
-24.5763778192304
 20
59.28412752246913
 10
-24.1923181278612
 20
59.28412752246913
 97
        1
330
C12
 92
        7
 72
     1
 73
     1
 93
       10
 10
-23.18424622689509
 20
58.5001017466509
 42
0.0
 10
-20.59204680345965
 20
58.5001017466509
 42
-0.4142135623730898
 10
-20.19204680345956
 20
58.1001017466508
 42
0.0
 10
-20.19204680345956
 20
55.12380871629648
 42
0.0
 10
-19.79201288790909
 20
55.12380871629648
 42
0.0
 10
-19.79201288790909
 20
58.1001017466508
 42
0.4142135623731547
 10
-20.59201288790928
 20
58.90010174665076
 42
0.0
 10
-23.56830591826338
 20
58.90010174665076
 42
0.0
 10
-23.56830591826338
 20
55.12380871629648
 42
0.0
 10
-23.18424622689463
 20
55.12380871629648
 42
0.0
 97
        1
330
BE7
 92
        7
 72
     1
 73
     1
 93
        8
 10
-19.1999120763262
 20
55.92680650071542
 42
0.4153115297271299
 10
-18.39991769304061
 20
55.12380871629648
 42
0.0
 10
-15.4236900118708
 20
55.12380871629648
 42
0.0
 10
-15.4236900118708
 20
59.87619128370352
 42
0.0
 10
-15.80771578768872
 20
59.87619128370352
 42
0.0
 10
-15.80771578768872
 20
58.90010174665076
 42
0.0
 10
-18.39176256411201
 20
58.90010174665076
 42
0.4131164467977965
 10
-19.19175694739761
 20
58.1030995310698
 42
0.0
 97
        1
330
BE6
 92
       22
 72
     1
 73
     1
 93
        6
 10
-18.79994912667462
 20
58.1001017466508
 42
-0.4142135623731575
 10
-18.39994912667453
 20
58.5001017466509
 42
0.0
 10
-15.80771578768872
 20
58.50010174665067
 42
0.0
 10
-15.80771578768827
 20
55.507868407665
 42
0.0
 10
-18.39994912667453
 20
55.507868407665
 42
-0.4142135623731731
 10
-18.79994912667462
 20
55.90786840766487
 42
0.0
 97
        1
330
BE5
 92
        7
 72
     1
 73
     1
 93
       12
 10
-14.79964388672215
 20
55.92380871629621
 42
0.4142135623729885
 10
-13.99964388672242
 20
55.12380871629648
 42
0.0
 10
-11.8233508563676
 20
55.12380871629648
 42
0.4142135623731289
 10
-11.02335085636741
 20
55.92380871629666
 42
0.0
 10
-11.02335085636741
 20
58.90010174665076
 42
0.0
 10
-11.42338477191788
 20
58.90010174665076
 42
0.0
 10
-11.42338477191788
 20
55.91567577726095
 42
-0.4131711701795319
 10
-11.82196067063523
 20
55.51567831234956
 42
0.0
 10
-14.01419400962095
 20
55.50787335710947
 42
-0.4152567234626918
 10
-14.41561811090378
 20
55.90787082202087
 42
0.0
 10
-14.41561811090378
 20
58.90010174665076
 42
0.0
 10
-14.7996438867226
 20
58.90010174665076
 42
0.0
 97
        1
330
BE4
 92
        7
 72
     1
 73
     1
 93
       20
 10
-7.423079531965413
 20
57.02796337120571
 42
-0.414213562373168
 10
-7.023079531965322
 20
56.62796337120562
 42
0.0
 10
-7.023079531965322
 20
55.90786840766487
 42
-0.4142135623731575
 10
-7.423079531965413
 20
55.507868407665
 42
0.0
 10
-10.41534678650168
 20
55.507868407665
 42
0.0
 10
-10.41534678650168
 20
55.12380871629648
 42
0.0
 10
-7.445787917283723
 20
55.12380871629648
 42
0.4114777732065809
 10
-6.645822882998345
 20
55.91632914939783
 42
0.0
 10
-6.639238813324936
 20
56.62051771985716
 42
0.4169546541682913
 10
-7.439203847610315
 20
57.42799728675596
 42
0.0
 10
-9.615312870951584
 20
57.42799728675596
 42
-0.4142135623729911
 10
-10.01531287095122
 20
57.82799728675581
 42
0.0
 10
-10.01531287095122
 20
58.10010174665103
 42
-0.414213562372991
 10
-9.615312870951584
 20
58.5001017466509
 42
0.0
 10
-6.92703069357276
 20
58.50010174665067
 42
0.0
 10
-6.927030693572305
 20
58.90010174665076
 42
0.0
 10
-9.615346786501959
 20
58.90010174665076
 42
0.4142135623730467
 10
-10.41534678650168
 20
58.10010174665103
 42
0.0
 10
-10.41534678650168
 20
57.82796337120544
 42
0.4142135623730301
 10
-9.615346786501959
 20
57.02796337120571
 42
0.0
 97
        1
330
BE3
 92
        7
 72
     1
 73
     1
 93
       12
 10
-5.21497371544865
 20
57.42799728675596
 42
0.4142135623730871
 10
-6.014973715448377
 20
56.627997286756
 42
0.0
 10
-6.014973715448377
 20
55.92380871629621
 42
0.4142135623730715
 10
-5.21497371544865
 20
55.12380871629648
 42
0.0
 10
-2.23871460064447
 20
55.12380871629648
 42
0.0
 10
-2.23871460064447
 20
58.10010174665058
 42
0.414213562373155
 10
-3.038714600644652
 20
58.90010174665076
 42
0.0
 10
-5.726962862471737
 20
58.90010174665076
 42
0.0
 10
-5.726962862472191
 20
58.5001017466509
 42
0.0
 10
-3.038748516194573
 20
58.5001017466509
 42
-0.4142135623730067
 10
-2.638748516194482
 20
58.10010174665058
 42
0.0
 10
-2.638748516194482
 20
57.42799728675596
 42
0.0
 97
        1
330
BE2
 92
       22
 72
     1
 73
     1
 93
        6
 10
-2.638748516194937
 20
57.02796337120571
 42
0.0
 10
-2.638748516194482
 20
55.50786840766477
 42
0.0
 10
-5.21497371544865
 20
55.507868407665
 42
-0.4142135623731731
 10
-5.614973715448741
 20
55.90786840766509
 42
0.0
 10
-5.614973715448741
 20
56.62796337120562
 42
-0.4142135623731576
 10
-5.21497371544865
 20
57.02796337120571
 42
0.0
 97
        1
330
C0D
 75
     0
 76
     1
 47
0.0407044778999864
 98
       13
 10
-34.18710075113677
 20
56.16907953933765
 10
-33.12851374392494
 20
56.49471602641233
 10
-33.12851374392494
 20
56.49471602641233
 10
-28.77202873835904
 20
57.51232930166111
 10
-24.41554807250941
 20
57.91937341678636
 10
-24.41554807250941
 20
59.384734621186
 10
-23.31624584658039
 20
58.3264175319116
 10
-19.04119127844888
 20
57.75655517324913
 10
-19.04119127844888
 20
57.75655517324913
 10
-14.64399105416578
 20
57.43091868617466
 10
-8.048195057457178
 20
57.22739662861204
 10
-4.017427461911665
 20
57.18669281458665
 10
-4.017427461911665
 20
57.18669281458665
  0
TEXT
  5
BED
330
B9E
100
AcDbEntity
  8
leg fin
100
AcDbText
 10
3.391127401597259
 20
2.107634911895729
 30
0.0
 40
1.5
  1
Este desenho é propriedade da Sanindusa, S.A., e não pode ser copiado nem divulgado sem nossa autorização.
 50
90.0
 41
0.8
  7
SANINDUSA
100
AcDbText
  0
LINE
  5
BEE
330
B9E
100
AcDbEntity
  8
3
100
AcDbLine
 10
-90.0
 20
4.0
 30
0.0
 11
-90.0
 21
12.0
 31
0.0
  0
TEXT
  5
BEF
330
B9E
100
AcDbEntity
  8
1
100
AcDbText
 10
-39.0
 20
9.25
 30
0.0
 40
2.0
  1
Substituido por:
 41
0.8
  7
SANINDUSA
 11
-39.0
 21
10.25
 31
0.0
100
AcDbText
 73
     2
  0
POINT
  5
BF0
330
B9E
100
AcDbEntity
  8
SANINDUSA
100
AcDbPoint
 10
0.0
 20
0.0
 30
0.0
  0
TEXT
  5
BF1
330
B9E
100
AcDbEntity
  8
1
100
AcDbText
 10
-89.0
 20
16.74927010445663
 30
0.0
 40
2.0
  1
Normas:
 41
0.8
  7
SANINDUSA
 11
-89.0
 21
17.74927010445663
 31
0.0
100
AcDbText
 73
     2
  0
LINE
  5
BF2
330
B9E
100
AcDbEntity
  8
3
100
AcDbLine
 10
-90.0
 20
12.0
 30
0.0
 11
-90.0
 21
20.0
 31
0.0
  0
LINE
  5
BF3
330
B9E
100
AcDbEntity
  8
3
100
AcDbLine
 10
-110.546019464768
 20
12.0
 30
0.0
 11
-110.546019464768
 21
20.0
 31
0.0
  0
TEXT
  5
BF4
330
B9E
100
AcDbEntity
  8
1
100
AcDbText
 10
-109.6177520618648
 20
17.25
 30
0.0
 40
2.0
  1
Cor:
 41
0.8
  7
SANINDUSA
 11
-109.6177520618648
 21
18.25
 31
0.0
100
AcDbText
 73
     2
  0
LINE
  5
BF5
330
B9E
100
AcDbEntity
  8
leg fin
100
AcDbLine
 10
-91.42857142857156
 20
20.0
 30
0.0
 11
-91.42857142857156
 21
28.5
 31
0.0
  0
LINE
  5
BF6
330
B9E
100
AcDbEntity
  8
leg fin
100
AcDbLine
 10
-104.2857142857142
 20
20.0
 30
0.0
 11
-104.2857142857142
 21
28.5
 31
0.0
  0
LINE
  5
BF7
330
B9E
100
AcDbEntity
  8
leg fin
100
AcDbLine
 10
-117.1428571428573
 20
20.0
 30
0.0
 11
-117.1428571428573
 21
28.5
 31
0.0
  0
POINT
  5
BF8
330
B9E
100
AcDbEntity
  8
SANINDUSA
100
AcDbPoint
 10
-117.1428571428573
 20
28.5
 30
0.0
  0
POINT
  5
BF9
330
B9E
100
AcDbEntity
  8
SANINDUSA
100
AcDbPoint
 10
-104.2857142857142
 20
28.5
 30
0.0
  0
POINT
  5
BFA
330
B9E
100
AcDbEntity
  8
SANINDUSA
100
AcDbPoint
 10
-91.42857142857156
 20
28.5
 30
0.0
  0
TEXT
  5
BFB
330
B9E
100
AcDbEntity
  8
1
100
AcDbText
 10
-116.200160604496
 20
26.43288406845113
 30
0.0
 40
1.5
  1
Nº Seq.:
 41
0.8
  7
SANINDUSA
 11
-116.200160604496
 21
27.18288406845113
 31
0.0
100
AcDbText
 73
     2
  0
TEXT
  5
BFC
330
B9E
100
AcDbEntity
  8
1
100
AcDbText
 10
-103.2106584078738
 20
26.43288406845113
 30
0.0
 40
1.5
  1
Tipo:
 41
0.8
  7
SANINDUSA
 11
-103.2106584078738
 21
27.18288406845113
 31
0.0
100
AcDbText
 73
     2
  0
TEXT
  5
BFD
330
B9E
100
AcDbEntity
  8
1
100
AcDbText
 10
-90.22114672289353
 20
26.43288406845113
 30
0.0
 40
1.5
  1
Prod.:
 41
0.8
  7
SANINDUSA
 11
-90.22114672289353
 21
27.18288406845113
 31
0.0
100
AcDbText
 73
     2
  0
TEXT
  5
BFE
330
B9E
100
AcDbEntity
  8
1
100
AcDbText
 10
-64.77320576346574
 20
26.43288406845113
 30
0.0
 40
1.5
  1
Rev.:
 41
0.8
  7
SANINDUSA
 11
-64.77320576346574
 21
27.18288406845113
 31
0.0
100
AcDbText
 73
     2
  0
LINE
  5
BFF
330
B9E
100
AcDbEntity
  8
leg fin
100
AcDbLine
 10
-52.85714285714266
 20
20.0
 30
0.0
 11
-52.85714285714266
 21
28.5
 31
0.0
  0
LINE
  5
C00
330
B9E
100
AcDbEntity
  8
leg fin
100
AcDbLine
 10
-65.71428571428578
 20
20.0
 30
0.0
 11
-65.71428571428578
 21
28.5
 31
0.0
  0
LINE
  5
C01
330
B9E
100
AcDbEntity
  8
leg fin
100
AcDbLine
 10
-78.57142857142844
 20
20.0
 30
0.0
 11
-78.57142857142844
 21
28.5
 31
0.0
  0
POINT
  5
C02
330
B9E
100
AcDbEntity
  8
SANINDUSA
100
AcDbPoint
 10
-78.57142857142844
 20
28.5
 30
0.0
  0
POINT
  5
C03
330
B9E
100
AcDbEntity
  8
SANINDUSA
100
AcDbPoint
 10
-65.71428571428578
 20
28.5
 30
0.0
  0
POINT
  5
C04
330
B9E
100
AcDbEntity
  8
SANINDUSA
100
AcDbPoint
 10
-52.85714285714266
 20
28.5
 30
0.0
  0
TEXT
  5
C05
330
B9E
100
AcDbEntity
  8
1
100
AcDbText
 10
-77.61097961686573
 20
26.43288406845113
 30
0.0
 40
1.5
  1
Peça:
 41
0.8
  7
SANINDUSA
 11
-77.61097961686573
 21
27.18288406845113
 31
0.0
100
AcDbText
 73
     2
  0
TEXT
  5
C06
330
B9E
100
AcDbEntity
  8
1
100
AcDbText
 10
-52.06538060077036
 20
26.43288406845113
 30
0.0
 40
1.5
  1
Alt.:
 41
0.8
  7
SANINDUSA
 11
-52.06538060077036
 21
27.18288406845113
 31
0.0
100
AcDbText
 73
     2
  0
LINE
  5
C07
330
B9E
100
AcDbEntity
  8
3
100
AcDbLine
 10
0.0
 20
12.0
 30
0.0
 11
-40.0
 21
12.0
 31
0.0
  0
LINE
  5
C08
330
B9E
100
AcDbEntity
  8
3
100
AcDbLine
 10
-40.0
 20
32.5
 30
0.0
 11
0.0
 21
32.5
 31
0.0
  0
TEXT
  5
C09
330
B9E
100
AcDbEntity
  8
1
100
AcDbText
 10
-19.0
 20
29.75
 30
0.0
 40
2.0
  1
Folha:
 41
0.8
  7
SANINDUSA
 11
-19.0
 21
30.75
 31
0.0
100
AcDbText
 73
     2
  0
LINE
  5
C0A
330
B9E
100
AcDbEntity
  8
3
100
AcDbLine
 10
-20.0
 20
32.5
 30
0.0
 11
-20.0
 21
20.0
 31
0.0
  0
TEXT
  5
C0B
330
B9E
100
AcDbEntity
  8
1
100
AcDbText
 10
-39.0
 20
29.75
 30
0.0
 40
2.0
  1
Escala:
 41
0.8
  7
SANINDUSA
 11
-39.0
 21
30.75
 31
0.0
100
AcDbText
 73
     2
  0
TEXT
  5
C0C
330
B9E
100
AcDbEntity
  8
1
100
AcDbText
 10
-39.0
 20
17.25
 30
0.0
 40
2.0
  1
Substitui:
 41
0.8
  7
SANINDUSA
 11
-39.0
 21
18.25
 31
0.0
100
AcDbText
 73
     2
  0
LWPOLYLINE
  5
C0D
102
{ACAD_REACTORS
330
BEC
102
}
330
B9E
100
AcDbEntity
  8
9
100
AcDbPolyline
 90
        6
 70
     1
 43
0.0
 10
-2.638748516194482
 20
57.02796337120571
 10
-2.638748516194482
 20
55.50786840766477
 10
-5.21497371544865
 20
55.507868407665
 42
-0.4142135623730898
 10
-5.614973715448741
 20
55.90786840766487
 10
-5.614973715448741
 20
56.62796337120562
 42
-0.4142135623731576
 10
-5.21497371544865
 20
57.02796337120571
  0
LINE
  5
C0E
330
B9E
100
AcDbEntity
  8
3
100
AcDbLine
 10
-40.0
 20
50.0
 30
0.0
 11
0.0
 21
50.0
 31
0.0
  0
ATTDEF
  5
C0F
330
B9E
100
AcDbEntity
  8
1
100
AcDbText
 10
-31.30691739422431
 20
40.25
 30
0.0
 40
2.0
  1
XXXXXXXXXXXXXXX
 41
0.8
  7
SANINDUSA
 72
     4
 11
-20.0
 21
41.25
 31
0.0
100
AcDbAttributeDefinition
  3
Observações:
  2
OBS
 70
     0
  0
TEXT
  5
C10
330
B9E
100
AcDbEntity
  8
1
100
AcDbText
 10
-39.0
 20
47.25
 30
0.0
 40
2.0
  1
Observações:
 41
0.8
  7
SANINDUSA
 11
-39.0
 21
48.25
 31
0.0
100
AcDbText
 73
     2
  0
LWPOLYLINE
  5
C11
102
{ACAD_REACTORS
330
BEC
102
}
330
B9E
100
AcDbEntity
  8
9
100
AcDbPolyline
 90
        6
 70
     1
 43
0.0
 10
-29.98468712904878
 20
57.02796337120571
 10
-29.98468712904878
 20
55.507868407665
 10
-32.57692046803459
 20
55.507868407665
 42
-0.4142135623731731
 10
-32.97692046803468
 20
55.90786840766487
 10
-32.97692046803468
 20
56.62796337120562
 42
-0.4142135623731576
 10
-32.57692046803459
 20
57.02796337120571
  0
LWPOLYLINE
  5
C12
102
{ACAD_REACTORS
330
BEC
102
}
330
B9E
100
AcDbEntity
  8
9
100
AcDbPolyline
 90
        4
 70
     1
 43
0.0
 10
-24.19231812786165
 20
59.87619128370352
 10
-24.57637781922995
 20
59.87619128370352
 10
-24.57637781922995
 20
59.28412752246913
 10
-24.19231812786165
 20
59.28412752246913
  0
ENDBLK
  5
C14
330
B9E
100
AcDbEntity
  8
0
100
AcDbBlockEnd
  0
BLOCK
  5
10BD
330
10BC
100
AcDbEntity
  8
0
100
AcDbBlockBegin
  2
SW_CENTERMARKSYMBOL_0
 70
     0
 10
0.0
 20
0.0
 30
0.0
  3
SW_CENTERMARKSYMBOL_0
  1

  0
LINE
  5
10BE
330
10BC
100
AcDbEntity
  8
0
  6
Continuous
 62
     0
370
     0
100
AcDbLine
 10
0.0
 20
0.0
 30
0.0
 11
0.0
 21
0.5000000000000005
 31
0.0
  0
LINE
  5
10BF
330
10BC
100
AcDbEntity
  8
0
  6
Continuous
 62
     0
370
     0
100
AcDbLine
 10
0.0
 20
0.0
 30
0.0
 11
-0.5000000000000005
 21
0.0
 31
0.0
  0
LINE
  5
10C0
330
10BC
100
AcDbEntity
  8
0
  6
Continuous
 62
     0
370
     0
100
AcDbLine
 10
0.0
 20
0.0
 30
0.0
 11
0.0
 21
-0.5000000000000005
 31
0.0
  0
LINE
  5
10C1
330
10BC
100
AcDbEntity
  8
0
  6
Continuous
 62
     0
370
     0
100
AcDbLine
 10
0.0
 20
0.0
 30
0.0
 11
0.5000000000000005
 21
0.0
 31
0.0
  0
LINE
  5
10C2
330
10BC
100
AcDbEntity
  8
0
  6
Continuous
 62
     0
370
     0
100
AcDbLine
 10
0.0
 20
1.0
 30
0.0
 11
0.0
 21
1.100000000000045
 31
0.0
  0
LINE
  5
10C3
330
10BC
100
AcDbEntity
  8
0
  6
Continuous
 62
     0
370
     0
100
AcDbLine
 10
-1.0
 20
0.0
 30
0.0
 11
-1.099999999999989
 21
0.0
 31
0.0
  0
LINE
  5
10C4
330
10BC
100
AcDbEntity
  8
0
  6
Continuous
 62
     0
370
     0
100
AcDbLine
 10
0.0
 20
-1.0
 30
0.0
 11
0.0
 21
-1.099999999999989
 31
0.0
  0
LINE
  5
10C5
330
10BC
100
AcDbEntity
  8
0
  6
Continuous
 62
     0
370
     0
100
AcDbLine
 10
1.0
 20
0.0
 30
0.0
 11
1.099999999999989
 21
0.0
 31
0.0
  0
ENDBLK
  5
10C6
330
10BC
100
AcDbEntity
  8
0
100
AcDbBlockEnd
  0
ENDSEC
  0
SECTION
  2
ENTITIES
  0
ARC
  5
1240
330
1F
100
AcDbEntity
  8
SANINDUSA
100
AcDbCircle
 10
4149.710451955382
 20
2397.416791652797
 30
0.0
 40
0.0030000000042345
100
AcDbArc
 50
346.5723559712125
 51
90.00001396553569
  0
ARC
  5
1241
330
1F
100
AcDbEntity
  8
SANINDUSA
100
AcDbCircle
 10
4149.337972072002
 20
2397.416791652797
 30
0.0
 40
0.003000000004216
100
AcDbArc
 50
89.99998603446428
 51
193.9423026037631
  0
SPLINE
  5
1242
330
1F
100
AcDbEntity
  8
SANINDUSA
100
AcDbSpline
210
0.0
220
0.0
230
1.0
 70
     8
 71
     3
 72
    17
 73
    13
 74
     0
 42
0.0000000001
 43
0.0000000001
 40
0.0
 40
0.0
 40
0.0
 40
0.0
 40
0.1013516454051675
 40
0.2022281079191639
 40
0.3027568861982496
 40
0.4030557408337654
 40
0.5032358720306056
 40
0.6034050535683031
 40
0.7036706648107203
 40
0.8041430080826557
 40
0.9049383120224
 40
1.0
 40
1.0
 40
1.0
 40
1.0
 10
4149.639212015778
 20
2397.299791655479
 30
0.0
 10
4149.642880358278
 20
2397.302807640276
 30
0.0
 10
4149.650199844411
 20
2397.308825469552
 30
0.0
 10
4149.660353087993
 20
2397.318748636133
 30
0.0
 10
4149.669827226064
 20
2397.329244834995
 30
0.0
 10
4149.678542630737
 20
2397.340341703273
 30
0.0
 10
4149.686488823397
 20
2397.351980025121
 30
0.0
 10
4149.693634615377
 20
2397.364124350807
 30
0.0
 10
4149.699962556996
 20
2397.376730930515
 30
0.0
 10
4149.705420608927
 20
2397.389765692234
 30
0.0
 10
4149.709986243872
 20
2397.402890359363
 30
0.0
 10
4149.712246247655
 20
2397.411784773598
 30
0.0
 10
4149.713343169302
 20
2397.416101790941
 30
0.0
  0
SPLINE
  5
1243
330
1F
100
AcDbEntity
  8
SANINDUSA
100
AcDbSpline
210
0.0
220
0.0
230
1.0
 70
     8
 71
     3
 72
    17
 73
    13
 74
     0
 42
0.0000000001
 43
0.0000000001
 40
0.0
 40
0.0
 40
0.0
 40
0.0
 40
0.0948032056022083
 40
0.1956273002443071
 40
0.2961283419696123
 40
0.3964225926154227
 40
0.4966203860127807
 40
0.5968291321968912
 40
0.6971566357312886
 40
0.7977141285835772
 40
0.8986194049816861
 40
1.0
 40
1.0
 40
1.0
 40
1.0
 10
4149.335091273994
 20
2397.416063041635
 30
0.0
 10
4149.336184988253
 20
2397.41175901746
 30
0.0
 10
4149.338441877839
 20
2397.402877623373
 30
0.0
 10
4149.343003502084
 20
2397.389765716499
 30
0.0
 10
4149.348461448062
 20
2397.376730924037
 30
0.0
 10
4149.354789417979
 20
2397.36412435254
 30
0.0
 10
4149.361935202388
 20
2397.351980024657
 30
0.0
 10
4149.369881397077
 20
2397.340341703397
 30
0.0
 10
4149.378596801205
 20
2397.329244834962
 30
0.0
 10
4149.388070939422
 20
2397.318748636142
 30
0.0
 10
4149.398224182966
 20
2397.308825469549
 30
0.0
 10
4149.405543669103
 20
2397.302807640275
 30
0.0
 10
4149.409212011606
 20
2397.299791655479
 30
0.0
  0
LINE
  5
1244
330
1F
100
AcDbEntity
  8
SANINDUSA
100
AcDbLine
 10
4149.489396966756
 20
2397.299791655479
 30
0.0
 11
4149.490286323936
 21
2397.289626239775
 31
0.0
  0
LINE
  5
1245
330
1F
100
AcDbEntity
  8
SANINDUSA
100
AcDbLine
 10
4149.55813770345
 20
2397.289626239775
 30
0.0
 11
4149.559027060629
 21
2397.299791655479
 31
0.0
  0
SPLINE
  5
1247
330
1F
100
AcDbEntity
  8
SANINDUSA
100
AcDbSpline
210
0.0
220
0.0
230
1.0
 70
    24
 71
     3
 72
    27
 73
    23
 74
     0
 42
0.0000000001
 43
0.0000000001
 40
0.0
 40
0.0
 40
0.0
 40
0.0
 40
0.033167342151009
 40
0.0663348519343756
 40
0.1205111199695341
 40
0.174887145795948
 40
0.2292661798714385
 40
0.2834465867294189
 40
0.3376008161681204
 40
0.3919487725518452
 40
0.4462978313864764
 40
0.5004535914778057
 40
0.5538701869929366
 40
0.6074722430661343
 40
0.6610732315544253
 40
0.7144884224765736
 40
0.7673838213617469
 40
0.8204638481089066
 40
0.8735410826619409
 40
0.9264326721819847
 40
0.9802170098508927
 40
1.0
 40
1.0
 40
1.0
 40
1.0
 10
4149.524212013693
 20
2397.419791652797
 30
0.0
 10
4149.527439299727
 20
2397.419791652797
 30
0.0
 10
4149.533893888107
 20
2397.419791652797
 30
0.0
 10
4149.545586699206
 20
2397.419791652797
 30
0.0
 10
4149.55923881035
 20
2397.419791652797
 30
0.0
 10
4149.57467131164
 20
2397.419791652797
 30
0.0
 10
4149.589738189294
 20
2397.419791652797
 30
0.0
 10
4149.60430956049
 20
2397.419791652797
 30
0.0
 10
4149.618282172686
 20
2397.419791652797
 30
0.0
 10
4149.6315911191
 20
2397.419791652797
 30
0.0
 10
4149.644137298028
 20
2397.419791652797
 30
0.0
 10
4149.655761262033
 20
2397.419791652797
 30
0.0
 10
4149.666382198822
 20
2397.419791652797
 30
0.0
 10
4149.675979168534
 20
2397.419791652797
 30
0.0
 10
4149.684531347664
 20
2397.419791652797
 30
0.0
 10
4149.691937386448
 20
2397.419791652797
 30
0.0
 10
4149.698132924591
 20
2397.419791652797
 30
0.0
 10
4149.703114102821
 20
2397.419791652797
 30
0.0
 10
4149.706895289146
 20
2397.419791652797
 30
0.0
 10
4149.709337605476
 20
2397.419791652797
 30
0.0
 10
4149.71046259287
 20
2397.419791652797
 30
0.0
 10
4149.710315898349
 20
2397.419791652797
 30
0.0
 10
4149.710276450725
 20
2397.419791652797
 30
0.0
  0
SPLINE
  5
1248
330
1F
100
AcDbEntity
  8
SANINDUSA
100
AcDbSpline
210
0.0
220
0.0
230
1.0
 70
    24
 71
     3
 72
    27
 73
    23
 74
     0
 42
0.0000000001
 43
0.0000000001
 40
0.0
 40
0.0
 40
0.0
 40
0.0
 40
0.0207927064242762
 40
0.0745216411359333
 40
0.1273587473137975
 40
0.180381307292701
 40
0.2334066565895061
 40
0.2862475682084932
 40
0.339607736429471
 40
0.3931535108275168
 40
0.4467003517107558
 40
0.5000619230778525
 40
0.5541618976116891
 40
0.6084549717728306
 40
0.6627469446186946
 40
0.7168453900766205
 40
0.7709699859886062
 40
0.8252930045132725
 40
0.8796130178876435
 40
0.9337334792401867
 40
0.9668668233499333
 40
1.0
 40
1.0
 40
1.0
 40
1.0
 10
4149.338150720806
 20
2397.419791652797
 30
0.0
 10
4149.338108487122
 20
2397.419791652797
 30
0.0
 10
4149.337957120419
 20
2397.419791652797
 30
0.0
 10
4149.33908469628
 20
2397.419791652797
 30
0.0
 10
4149.341529199142
 20
2397.419791652797
 30
0.0
 10
4149.345309800864
 20
2397.419791652797
 30
0.0
 10
4149.3502911358
 20
2397.419791652797
 30
0.0
 10
4149.356486632011
 20
2397.419791652797
 30
0.0
 10
4149.363892682132
 20
2397.419791652797
 30
0.0
 10
4149.372444858204
 20
2397.419791652797
 30
0.0
 10
4149.382041828735
 20
2397.419791652797
 30
0.0
 10
4149.392662765304
 20
2397.419791652797
 30
0.0
 10
4149.404286729369
 20
2397.419791652797
 30
0.0
 10
4149.416832908281
 20
2397.419791652797
 30
0.0
 10
4149.4301418547
 20
2397.419791652797
 30
0.0
 10
4149.444114466894
 20
2397.419791652797
 30
0.0
 10
4149.45868583809
 20
2397.419791652797
 30
0.0
 10
4149.473752715745
 20
2397.419791652797
 30
0.0
 10
4149.489185217034
 20
2397.419791652797
 30
0.0
 10
4149.502837328178
 20
2397.419791652797
 30
0.0
 10
4149.514530139277
 20
2397.419791652797
 30
0.0
 10
4149.520984727657
 20
2397.419791652797
 30
0.0
 10
4149.524212013693
 20
2397.419791652797
 30
0.0
  0
LINE
  5
124B
330
1F
100
AcDbEntity
  8
SANINDUSA
100
AcDbLine
 10
4149.524212013693
 20
2397.289626239775
 30
0.0
 11
4149.55813770345
 21
2397.289626239775
 31
0.0
  0
LINE
  5
124C
330
1F
100
AcDbEntity
  8
SANINDUSA
100
AcDbLine
 10
4149.490286323936
 20
2397.289626239775
 30
0.0
 11
4149.524212013693
 21
2397.289626239775
 31
0.0
  0
SPLINE
  5
124F
330
1F
100
AcDbEntity
  8
SANINDUSA
100
AcDbSpline
210
0.0
220
0.0
230
1.0
 70
     8
 71
     3
 72
    85
 73
    81
 74
     0
 42
0.0000000001
 43
0.0000000001
 40
0.0
 40
0.0
 40
0.0
 40
0.0
 40
0.0038644398441629
 40
0.0168487056299526
 40
0.0298378210113183
 40
0.0427588215136556
 40
0.0555676156229765
 40
0.0683827281282702
 40
0.0812762476945972
 40
0.094221152451336
 40
0.1072102264837036
 40
0.1202349958873838
 40
0.1332859932109362
 40
0.146352954951516
 40
0.1594243601825843
 40
0.1724861921931845
 40
0.1855274347177209
 40
0.198537990231451
 40
0.2115439738147097
 40
0.2245979814345898
 40
0.2377217394758643
 40
0.250871124634757
 40
0.2639907112171982
 40
0.2770305209851624
 40
0.2900149596034152
 40
0.303094728216468
 40
0.3161425013003498
 40
0.3291905860045447
 40
0.3422637214335695
 40
0.3553823434730111
 40
0.3683663037002946
 40
0.3813217764401787
 40
0.394312497616923
 40
0.4073283541923086
 40
0.4203586289338854
 40
0.4333906034437504
 40
0.4464103398748359
 40
0.4594064143622798
 40
0.4723678263687096
 40
0.4852842948223168
 40
0.4981465158300905
 40
0.5109508495809286
 40
0.5237297448655126
 40
0.5365743262415449
 40
0.5494852653354547
 40
0.5624514440916223
 40
0.5754605711794363
 40
0.5884993993997555
 40
0.6015540520106529
 40
0.6146081773121683
 40
0.6276451225073309
 40
0.6406513078430073
 40
0.6536139906532151
 40
0.6665369091227956
 40
0.6795019009597629
 40
0.6925271208193989
 40
0.7056018329380461
 40
0.7187144329791067
 40
0.7318524737945049
 40
0.7450030956700574
 40
0.758150457735821
 40
0.7712802568022629
 40
0.7843802917576756
 40
0.7974392710417233
 40
0.8104455641699889
 40
0.8234095317057949
 40
0.8363996987932562
 40
0.8494285375668784
 40
0.8624855335105589
 40
0.8755593756852519
 40
0.8886374449396418
 40
0.9017045011305709
 40
0.9147486500390902
 40
0.9277584552896685
 40
0.940723253043606
 40
0.953633405766198
 40
0.9665078620831625
 40
0.9793718583569972
 40
0.9923191415991801
 40
1.0
 40
1.0
 40
1.0
 40
1.0
 10
4149.058029838596
 20
2397.552176483552
 30
0.0
 10
4149.057264831321
 20
2397.552185657799
 30
0.0
 10
4149.053929449506
 20
2397.55222565692
 30
0.0
 10
4149.048023970998
 20
2397.551978451065
 30
0.0
 10
4149.040343231264
 20
2397.551428258982
 30
0.0
 10
4149.032726816336
 20
2397.550542539175
 30
0.0
 10
4149.025187906008
 20
2397.549351200046
 30
0.0
 10
4149.017709583707
 20
2397.547851400862
 30
0.0
 10
4149.010272525483
 20
2397.546041585367
 30
0.0
 10
4149.002882266656
 20
2397.54392071886
 30
0.0
 10
4148.995559661887
 20
2397.541493055399
 30
0.0
 10
4148.988321987231
 20
2397.538762723064
 30
0.0
 10
4148.981186852751
 20
2397.535734963622
 30
0.0
 10
4148.974172096938
 20
2397.532416234595
 30
0.0
 10
4148.967296059113
 20
2397.528814252064
 30
0.0
 10
4148.960576729177
 20
2397.524937929161
 30
0.0
 10
4148.954031338753
 20
2397.520797092249
 30
0.0
 10
4148.94767015413
 20
2397.516397863116
 30
0.0
 10
4148.941493153425
 20
2397.511739415167
 30
0.0
 10
4148.935492473379
 20
2397.506820591084
 30
0.0
 10
4148.929673792383
 20
2397.501644915974
 30
0.0
 10
4148.924059691832
 20
2397.496229299164
 30
0.0
 10
4148.918681137448
 20
2397.490602561925
 30
0.0
 10
4148.913560217663
 20
2397.484783867034
 30
0.0
 10
4148.908681762342
 20
2397.478770681347
 30
0.0
 10
4148.904049882832
 20
2397.472563476274
 30
0.0
 10
4148.899668676669
 20
2397.466161601392
 30
0.0
 10
4148.895553608239
 20
2397.459587031419
 30
0.0
 10
4148.891703523783
 20
2397.452837767664
 30
0.0
 10
4148.888135420803
 20
2397.445949489485
 30
0.0
 10
4148.884866035677
 20
2397.43894020769
 30
0.0
 10
4148.881895324876
 20
2397.431826721856
 30
0.0
 10
4148.87921446547
 20
2397.424592265252
 30
0.0
 10
4148.87682549462
 20
2397.417240674136
 30
0.0
 10
4148.874735483388
 20
2397.409790078742
 30
0.0
 10
4148.872950624069
 20
2397.402259754314
 30
0.0
 10
4148.871476008375
 20
2397.394669470104
 30
0.0
 10
4148.870315566124
 20
2397.387038965746
 30
0.0
 10
4148.869471919011
 20
2397.37938752454
 30
0.0
 10
4148.86894678628
 20
2397.371734199325
 30
0.0
 10
4148.868740330113
 20
2397.364096734615
 30
0.0
 10
4148.868853309152
 20
2397.356484556774
 30
0.0
 10
4148.869281655612
 20
2397.348887164206
 30
0.0
 10
4148.870023326049
 20
2397.341292748232
 30
0.0
 10
4148.87107983542
 20
2397.333698264916
 30
0.0
 10
4148.872450773895
 20
2397.326121095388
 30
0.0
 10
4148.874134389405
 20
2397.318581268994
 30
0.0
 10
4148.876127707616
 20
2397.311099208573
 30
0.0
 10
4148.878426439337
 20
2397.303695931529
 30
0.0
 10
4148.881024794624
 20
2397.296392808609
 30
0.0
 10
4148.883915805759
 20
2397.289210847259
 30
0.0
 10
4148.887091232897
 20
2397.282169863586
 30
0.0
 10
4148.890544124502
 20
2397.275285941168
 30
0.0
 10
4148.894273768308
 20
2397.268557318577
 30
0.0
 10
4148.898280600533
 20
2397.26197552172
 30
0.0
 10
4148.902567694962
 20
2397.255536608689
 30
0.0
 10
4148.907128923343
 20
2397.249252749084
 30
0.0
 10
4148.911954161092
 20
2397.243140779583
 30
0.0
 10
4148.917032111222
 20
2397.237217279654
 30
0.0
 10
4148.922350032839
 20
2397.231498828201
 30
0.0
 10
4148.927893967823
 20
2397.226001519673
 30
0.0
 10
4148.933649045672
 20
2397.220740475523
 30
0.0
 10
4148.939600214955
 20
2397.21572942064
 30
0.0
 10
4148.94573192637
 20
2397.210980770378
 30
0.0
 10
4148.952031880305
 20
2397.206504035362
 30
0.0
 10
4148.958498729162
 20
2397.202296971903
 30
0.0
 10
4148.965135108213
 20
2397.198354056335
 30
0.0
 10
4148.971942262984
 20
2397.194674998397
 30
0.0
 10
4148.978907885754
 20
2397.191267714155
 30
0.0
 10
4148.986014940237
 20
2397.188141918227
 30
0.0
 10
4148.993244933563
 20
2397.185306593406
 30
0.0
 10
4149.000578779578
 20
2397.18276978112
 30
0.0
 10
4149.007997104741
 20
2397.180538225497
 30
0.0
 10
4149.015481015707
 20
2397.178617500169
 30
0.0
 10
4149.0230116905
 20
2397.177011634482
 30
0.0
 10
4149.03057590748
 20
2397.175723817572
 30
0.0
 10
4149.03816757427
 20
2397.174752106756
 30
0.0
 10
4149.045799996795
 20
2397.174107608256
 30
0.0
 10
4149.052425301124
 20
2397.173774026539
 30
0.0
 10
4149.056509315397
 20
2397.173784255183
 30
0.0
 10
4149.058029992146
 20
2397.173788063804
 30
0.0
  0
SPLINE
  5
1250
330
1F
100
AcDbEntity
  8
SANINDUSA
100
AcDbSpline
210
0.0
220
0.0
230
1.0
 70
     8
 71
     3
 72
    85
 73
    81
 74
     0
 42
0.0000000001
 43
0.0000000001
 40
0.0
 40
0.0
 40
0.0
 40
0.0
 40
0.0038268015661598
 40
0.0167904556325716
 40
0.0297592130818634
 40
0.0426623222357144
 40
0.0554694503909806
 40
0.0682965595195299
 40
0.081201933968837
 40
0.0941656394660074
 40
0.1071778019912791
 40
0.1202276060299087
 40
0.1333035051417652
 40
0.1463935763616575
 40
0.1594839051662192
 40
0.1725605513295398
 40
0.185612358439995
 40
0.1986288737506228
 40
0.2115976793551413
 40
0.2245836502408656
 40
0.2376240622326444
 40
0.2507083731708776
 40
0.2638251565349561
 40
0.2769621090940034
 40
0.2901063115866167
 40
0.3032404916237934
 40
0.3163518390642958
 40
0.3294280156994842
 40
0.3424575247512491
 40
0.3554317072893222
 40
0.3683561594769986
 40
0.3813085222127033
 40
0.3943064316437654
 40
0.4073369460707344
 40
0.420386435812277
 40
0.4334397447616432
 40
0.4464789960870669
 40
0.4594903719368509
 40
0.4724607512959802
 40
0.485378052689668
 40
0.4982315128421273
 40
0.5110155845434291
 40
0.5238070349267706
 40
0.5366686492426098
 40
0.5495884708007884
 40
0.5625569642498238
 40
0.5755636613355025
 40
0.5885974737333135
 40
0.6016469382269737
 40
0.6146993381161665
 40
0.6277407837136709
 40
0.6407606675005415
 40
0.6537468906173498
 40
0.6666613502359659
 40
0.6796954255877434
 40
0.6927065395375732
 40
0.7057269500137381
 40
0.718778178035818
 40
0.731893383838549
 40
0.7449844484375925
 40
0.7580352068033811
 40
0.77114575193167
 40
0.7842724038687486
 40
0.797356893577121
 40
0.8103646725621851
 40
0.8233473600726046
 40
0.8363610820502586
 40
0.8494099296529704
 40
0.8624831604611715
 40
0.8755697987536905
 40
0.8886569921705575
 40
0.9017320597092698
 40
0.9147848543544782
 40
0.9278061063659285
 40
0.9407876008062775
 40
0.9537224499552314
 40
0.9666188407676257
 40
0.979466318065638
 40
0.992398892205168
 40
1.0
 40
1.0
 40
1.0
 40
1.0
 10
4149.058029907116
 20
2397.173782446067
 30
0.0
 10
4149.058787462931
 20
2397.173773294067
 30
0.0
 10
4149.062111311079
 20
2397.173733138795
 30
0.0
 10
4149.068001267103
 20
2397.173978995724
 30
0.0
 10
4149.075670492775
 20
2397.174526794868
 30
0.0
 10
4149.08327927804
 20
2397.175409687919
 30
0.0
 10
4149.090817050006
 20
2397.176598713973
 30
0.0
 10
4149.098299941546
 20
2397.178098157404
 30
0.0
 10
4149.105745442171
 20
2397.179909031445
 30
0.0
 10
4149.113146148151
 20
2397.18203210614
 30
0.0
 10
4149.120481551534
 20
2397.184463302299
 30
0.0
 10
4149.127732935858
 20
2397.187198285036
 30
0.0
 10
4149.134881528296
 20
2397.190231382813
 30
0.0
 10
4149.141908272348
 20
2397.19355579089
 30
0.0
 10
4149.148794136246
 20
2397.197163300068
 30
0.0
 10
4149.155520651106
 20
2397.201044750772
 30
0.0
 10
4149.16207055454
 20
2397.205190090208
 30
0.0
 10
4149.168427188136
 20
2397.209588733108
 30
0.0
 10
4149.174587135753
 20
2397.214237173974
 30
0.0
 10
4149.180556622148
 20
2397.219135199112
 30
0.0
 10
4149.186339983503
 20
2397.22428610323
 30
0.0
 10
4149.191929124225
 20
2397.229684470675
 30
0.0
 10
4149.197308947411
 20
2397.235317924716
 30
0.0
 10
4149.202464797226
 20
2397.241172875633
 30
0.0
 10
4149.20738194577
 20
2397.247234127339
 30
0.0
 10
4149.21204654637
 20
2397.253485498302
 30
0.0
 10
4149.21644584552
 20
2397.25991002837
 30
0.0
 10
4149.220568573192
 20
2397.266491018632
 30
0.0
 10
4149.224404998064
 20
2397.273211692053
 30
0.0
 10
4149.227947237512
 20
2397.280058184874
 30
0.0
 10
4149.231197587236
 20
2397.287031080347
 30
0.0
 10
4149.234162572829
 20
2397.294135075905
 30
0.0
 10
4149.236843323268
 20
2397.301373531876
 30
0.0
 10
4149.239233512347
 20
2397.308733281377
 30
0.0
 10
4149.241325360795
 20
2397.316194718324
 30
0.0
 10
4149.243112044977
 20
2397.323736838276
 30
0.0
 10
4149.244587928982
 20
2397.33133820815
 30
0.0
 10
4149.245748862791
 20
2397.338977414952
 30
0.0
 10
4149.246592039448
 20
2397.346633917898
 30
0.0
 10
4149.247115879039
 20
2397.3542875521
 30
0.0
 10
4149.247320049994
 20
2397.361919512889
 30
0.0
 10
4149.247204840049
 20
2397.369528384848
 30
0.0
 10
4149.246775553044
 20
2397.37712757141
 30
0.0
 10
4149.246032138581
 20
2397.384729483778
 30
0.0
 10
4149.244973578792
 20
2397.392329336206
 30
0.0
 10
4149.243600563909
 20
2397.399907908149
 30
0.0
 10
4149.24191487306
 20
2397.407446243574
 30
0.0
 10
4149.239919374343
 20
2397.414925147979
 30
0.0
 10
4149.237618036104
 20
2397.422325153928
 30
0.0
 10
4149.235016166496
 20
2397.429626533355
 30
0.0
 10
4149.232120023198
 20
2397.436809942962
 30
0.0
 10
4149.22893765323
 20
2397.443856889555
 30
0.0
 10
4149.225477794227
 20
2397.450743653412
 30
0.0
 10
4149.221742151008
 20
2397.45748789595
 30
0.0
 10
4149.217734650503
 20
2397.464080104223
 30
0.0
 10
4149.213449774737
 20
2397.470520693893
 30
0.0
 10
4149.208903880164
 20
2397.476783989849
 30
0.0
 10
4149.204094076467
 20
2397.482873189396
 30
0.0
 10
4149.199034228899
 20
2397.488774768989
 30
0.0
 10
4149.19373571914
 20
2397.49446296002
 30
0.0
 10
4149.188211810659
 20
2397.499931085224
 30
0.0
 10
4149.182467007818
 20
2397.50517713765
 30
0.0
 10
4149.176509993827
 20
2397.510191310154
 30
0.0
 10
4149.170370581025
 20
2397.514947328878
 30
0.0
 10
4149.164064410167
 20
2397.51943093997
 30
0.0
 10
4149.15759143602
 20
2397.52364449408
 30
0.0
 10
4149.150945430246
 20
2397.527595372105
 30
0.0
 10
4149.144128579229
 20
2397.531281420443
 30
0.0
 10
4149.137154663487
 20
2397.534693882062
 30
0.0
 10
4149.130040856831
 20
2397.537823127976
 30
0.0
 10
4149.122805262608
 20
2397.540660446116
 30
0.0
 10
4149.115466294721
 20
2397.5431981155
 30
0.0
 10
4149.108042195101
 20
2397.545429840312
 30
0.0
 10
4149.100550723423
 20
2397.547350463391
 30
0.0
 10
4149.093009296019
 20
2397.548956119801
 30
0.0
 10
4149.085432299696
 20
2397.550243620322
 30
0.0
 10
4149.077834372138
 20
2397.551213506648
 30
0.0
 10
4149.070203551672
 20
2397.551855048073
 30
0.0
 10
4149.063600115255
 20
2397.552185929279
 30
0.0
 10
4149.059534804928
 20
2397.552175065978
 30
0.0
 10
4149.058029918365
 20
2397.552171044628
 30
0.0
  0
SPLINE
  5
1253
330
1F
100
AcDbEntity
  8
SANINDUSA
100
AcDbSpline
210
0.0
220
0.0
230
1.0
 70
     8
 71
     3
 72
    24
 73
    20
 74
     0
 42
0.0000000001
 43
0.0000000001
 40
0.0
 40
0.0
 40
0.0
 40
0.0
 40
0.03125
 40
0.0625
 40
0.09375
 40
0.125
 40
0.15625
 40
0.1875
 40
0.21875
 40
0.25
 40
0.25
 40
0.28125
 40
0.3125
 40
0.34375
 40
0.375
 40
0.40625
 40
0.4375
 40
0.46875
 40
0.5
 40
0.5
 40
0.5
 40
0.5
 10
4149.058030033534
 20
2397.547979792635
 30
0.0
 10
4149.045921811927
 20
2397.547979792635
 30
0.0
 10
4149.021705630885
 20
2397.54559536192
 30
0.0
 10
4148.986777063315
 20
2397.534999493243
 30
0.0
 10
4148.954586773184
 20
2397.517793627843
 30
0.0
 10
4148.926371779598
 20
2397.49463804657
 30
0.0
 10
4148.903216198326
 20
2397.466423052984
 30
0.0
 10
4148.886010332925
 20
2397.434232762853
 30
0.0
 10
4148.875414464249
 20
2397.399304195283
 30
0.0
 10
4148.873030033533
 20
2397.375088014241
 30
0.0
 10
4148.873030033533
 20
2397.350871571028
 30
0.0
 10
4148.875414464249
 20
2397.326655389986
 30
0.0
 10
4148.886010332925
 20
2397.291726822416
 30
0.0
 10
4148.903216198326
 20
2397.259536532285
 30
0.0
 10
4148.926371779598
 20
2397.231321538699
 30
0.0
 10
4148.954586773184
 20
2397.208165957427
 30
0.0
 10
4148.986777063315
 20
2397.190960092026
 30
0.0
 10
4149.021705630885
 20
2397.18036422335
 30
0.0
 10
4149.045921811927
 20
2397.177979792635
 30
0.0
 10
4149.058030033534
 20
2397.177979792635
 30
0.0
  0
SPLINE
  5
1254
330
1F
100
AcDbEntity
  8
SANINDUSA
100
AcDbSpline
210
0.0
220
0.0
230
1.0
 70
     8
 71
     3
 72
    24
 73
    20
 74
     0
 42
0.0000000001
 43
0.0000000001
 40
0.0
 40
0.0
 40
0.0
 40
0.0
 40
0.03125
 40
0.0625
 40
0.09375
 40
0.125
 40
0.15625
 40
0.1875
 40
0.21875
 40
0.25
 40
0.25
 40
0.28125
 40
0.3125
 40
0.34375
 40
0.375
 40
0.40625
 40
0.4375
 40
0.46875
 40
0.5
 40
0.5
 40
0.5
 40
0.5
 10
4149.058030033534
 20
2397.547979792635
 30
0.0
 10
4149.07013825514
 20
2397.547979792635
 30
0.0
 10
4149.094354436182
 20
2397.54559536192
 30
0.0
 10
4149.129283003753
 20
2397.534999493243
 30
0.0
 10
4149.161473293884
 20
2397.517793627843
 30
0.0
 10
4149.18968828747
 20
2397.49463804657
 30
0.0
 10
4149.212843868741
 20
2397.466423052984
 30
0.0
 10
4149.230049734142
 20
2397.434232762853
 30
0.0
 10
4149.240645602819
 20
2397.399304195283
 30
0.0
 10
4149.243030033534
 20
2397.375088014241
 30
0.0
 10
4149.243030033534
 20
2397.350871571028
 30
0.0
 10
4149.240645602819
 20
2397.326655389986
 30
0.0
 10
4149.230049734142
 20
2397.291726822416
 30
0.0
 10
4149.212843868741
 20
2397.259536532285
 30
0.0
 10
4149.18968828747
 20
2397.231321538699
 30
0.0
 10
4149.161473293884
 20
2397.208165957427
 30
0.0
 10
4149.129283003753
 20
2397.190960092026
 30
0.0
 10
4149.094354436182
 20
2397.18036422335
 30
0.0
 10
4149.07013825514
 20
2397.177979792635
 30
0.0
 10
4149.058030033534
 20
2397.177979792635
 30
0.0
  0
SPLINE
  5
1257
330
1F
100
AcDbEntity
  8
SANINDUSA
100
AcDbSpline
210
0.0
220
0.0
230
1.0
 70
     8
 71
     3
 72
   100
 73
    96
 74
     0
 42
0.0000000001
 43
0.0000000001
 40
0.0
 40
0.0
 40
0.0
 40
0.0
 40
0.0312499999999996
 40
0.0312499999999996
 40
0.0468749999999994
 40
0.0468749999999994
 40
0.0624999999999992
 40
0.0624999999999992
 40
0.0937499999999989
 40
0.0937499999999989
 40
0.1093749999999986
 40
0.1093749999999986
 40
0.1249999999999984
 40
0.1249999999999984
 40
0.156249999999998
 40
0.156249999999998
 40
0.1874999999999976
 40
0.1874999999999976
 40
0.2031249999999975
 40
0.2031249999999975
 40
0.2109374999999974
 40
0.2109374999999974
 40
0.2187499999999974
 40
0.2187499999999974
 40
0.2499999999999973
 40
0.2499999999999973
 40
0.2812499999999973
 40
0.2812499999999973
 40
0.3124999999999971
 40
0.3124999999999971
 40
0.3203124999999971
 40
0.3203124999999971
 40
0.3281249999999971
 40
0.3281249999999971
 40
0.3437499999999969
 40
0.3437499999999969
 40
0.3749999999999968
 40
0.3749999999999968
 40
0.4062499999999967
 40
0.4062499999999967
 40
0.4218749999999966
 40
0.4218749999999966
 40
0.4374999999999964
 40
0.4374999999999964
 40
0.4687499999999963
 40
0.4687499999999963
 40
0.4999999999999961
 40
0.4999999999999961
 40
0.515624999999996
 40
0.515624999999996
 40
0.523437499999996
 40
0.523437499999996
 40
0.531249999999996
 40
0.531249999999996
 40
0.562499999999996
 40
0.562499999999996
 40
0.593749999999996
 40
0.593749999999996
 40
0.6249999999999958
 40
0.6249999999999958
 40
0.632812499999996
 40
0.632812499999996
 40
0.640624999999996
 40
0.640624999999996
 40
0.656249999999996
 40
0.656249999999996
 40
0.687499999999996
 40
0.687499999999996
 40
0.718749999999996
 40
0.718749999999996
 40
0.7343749999999961
 40
0.7343749999999961
 40
0.7421874999999961
 40
0.7421874999999961
 40
0.7499999999999961
 40
0.7499999999999961
 40
0.7812499999999966
 40
0.7812499999999966
 40
0.8124999999999971
 40
0.8124999999999971
 40
0.8437499999999975
 40
0.8437499999999975
 40
0.8593749999999978
 40
0.8593749999999978
 40
0.874999999999998
 40
0.874999999999998
 40
0.9062499999999985
 40
0.9062499999999985
 40
0.9374999999999989
 40
0.9374999999999989
 40
0.9531249999999992
 40
0.9531249999999992
 40
0.9687499999999996
 40
0.9687499999999996
 40
1.0
 40
1.0
 40
1.0
 40
1.0
 10
4149.058030033534
 20
2397.46286338
 30
0.0
 10
4149.061288600033
 20
2397.46286338
 30
0.0
 10
4149.064557013379
 20
2397.462705793566
 30
0.0
 10
4149.069474873271
 20
2397.462225495472
 30
0.0
 10
4149.071111330814
 20
2397.462025035865
 30
0.0
 10
4149.07436272751
 20
2397.461545665573
 30
0.0
 10
4149.075980115734
 20
2397.461266526507
 30
0.0
 10
4149.080807351862
 20
2397.46031075139
 30
0.0
 10
4149.08399235475
 20
2397.459516153647
 30
0.0
 10
4149.088719630087
 20
2397.458085754054
 30
0.0
 10
4149.090287225719
 20
2397.457568775325
 30
0.0
 10
4149.093377363466
 20
2397.456464552905
 30
0.0
 10
4149.094903521278
 20
2397.45587628398
 30
0.0
 10
4149.09942593467
 20
2397.454004289314
 30
0.0
 10
4149.102366315724
 20
2397.452613730128
 30
0.0
 10
4149.108100064434
 20
2397.449551510784
 30
0.0
 10
4149.11089343724
 20
2397.447879860494
 30
0.0
 10
4149.114970639742
 20
2397.44515659003
 30
0.0
 10
4149.116310853263
 20
2397.444212782207
 30
0.0
 10
4149.118292417687
 20
2397.442742085512
 30
0.0
 10
4149.118949016996
 20
2397.442241982171
 30
0.0
 10
4149.120246211627
 20
2397.441228209784
 30
0.0
 10
4149.120887208272
 20
2397.440714281163
 30
0.0
 10
4149.124054612047
 20
2397.438109818716
 30
0.0
 10
4149.126468643738
 20
2397.435915163138
 30
0.0
 10
4149.131061780277
 20
2397.431308180163
 30
0.0
 10
4149.133240887866
 20
2397.42889585531
 30
0.0
 10
4149.137364444315
 20
2397.423853781965
 30
0.0
 10
4149.139308918488
 20
2397.421224056932
 30
0.0
 10
4149.141587345197
 20
2397.417795910244
 30
0.0
 10
4149.142035553462
 20
2397.417102902787
 30
0.0
 10
4149.14291170479
 20
2397.415710533705
 30
0.0
 10
4149.143340290375
 20
2397.415010228716
 30
0.0
 10
4149.144597927979
 20
2397.412897104729
 30
0.0
 10
4149.145398883619
 20
2397.411472086605
 30
0.0
 10
4149.147691294868
 20
2397.407149072648
 30
0.0
 10
4149.149072630867
 20
2397.404203263201
 30
0.0
 10
4149.151543401255
 20
2397.398184894856
 30
0.0
 10
4149.152632848944
 20
2397.395112341614
 30
0.0
 10
4149.154045597976
 20
2397.390407359294
 30
0.0
 10
4149.154479584324
 20
2397.388822738891
 30
0.0
 10
4149.155271893681
 20
2397.385621671508
 30
0.0
 10
4149.155627074775
 20
2397.384018007349
 30
0.0
 10
4149.156572132693
 20
2397.379197808957
 30
0.0
 10
4149.157041908847
 20
2397.375972098195
 30
0.0
 10
4149.157669299813
 20
2397.369496823529
 30
0.0
 10
4149.157826809804
 20
2397.36624725171
 30
0.0
 10
4149.157827144656
 20
2397.361354863538
 30
0.0
 10
4149.157787863516
 20
2397.359721056953
 30
0.0
 10
4149.157668956535
 20
2397.35726576318
 30
0.0
 10
4149.157619318781
 20
2397.356446567592
 30
0.0
 10
4149.157499831058
 20
2397.3548066319
 30
0.0
 10
4149.157429866171
 20
2397.353984781922
 30
0.0
 10
4149.157030440024
 20
2397.349886905192
 30
0.0
 10
4149.156553725816
 20
2397.346650271793
 30
0.0
 10
4149.155294269205
 20
2397.340258130482
 30
0.0
 10
4149.154511545443
 20
2397.337102617634
 30
0.0
 10
4149.15264122798
 20
2397.330872401572
 30
0.0
 10
4149.151553653388
 20
2397.327797693289
 30
0.0
 10
4149.149997294226
 20
2397.324006491799
 30
0.0
 10
4149.149676147095
 20
2397.32325086884
 30
0.0
 10
4149.14901391472
 20
2397.321744907197
 30
0.0
 10
4149.14867234386
 20
2397.320993568974
 30
0.0
 10
4149.147622549161
 20
2397.318758401893
 30
0.0
 10
4149.146888601557
 20
2397.317291596554
 30
0.0
 10
4149.144586536703
 20
2397.312959708788
 30
0.0
 10
4149.142918502583
 20
2397.310162945899
 30
0.0
 10
4149.13931886109
 20
2397.30474963837
 30
0.0
 10
4149.137387247054
 20
2397.30213309822
 30
0.0
 10
4149.134290773448
 20
2397.298344388423
 30
0.0
 10
4149.133225363798
 20
2397.297104220781
 30
0.0
 10
4149.131576479679
 20
2397.29527868254
 30
0.0
 10
4149.131018384824
 20
2397.294675958891
 30
0.0
 10
4149.12988504741
 20
2397.293482236153
 30
0.0
 10
4149.129309273635
 20
2397.292890741343
 30
0.0
 10
4149.126403167827
 20
2397.289978972954
 30
0.0
 10
4149.123980510901
 20
2397.287783456776
 30
0.0
 10
4149.118946701187
 20
2397.2836505679
 30
0.0
 10
4149.116335526213
 20
2397.28171322559
 30
0.0
 10
4149.110924313561
 20
2397.278097185407
 30
0.0
 10
4149.108124277748
 20
2397.276418484927
 30
0.0
 10
4149.103779612174
 20
2397.274098476025
 30
0.0
 10
4149.102303292273
 20
2397.27335650052
 30
0.0
 10
4149.09933030186
 20
2397.271953615503
 30
0.0
 10
4149.097831841905
 20
2397.27129149283
 30
0.0
 10
4149.093301127075
 20
2397.269421243361
 30
0.0
 10
4149.090233649054
 20
2397.268328867346
 30
0.0
 10
4149.084006695972
 20
2397.26644641966
 30
0.0
 10
4149.080847221517
 20
2397.265656346008
 30
0.0
 10
4149.076037918887
 20
2397.264701539831
 30
0.0
 10
4149.074423106399
 20
2397.264421752958
 30
0.0
 10
4149.071169753258
 20
2397.263940142305
 30
0.0
 10
4149.06953079471
 20
2397.263738470173
 30
0.0
 10
4149.064615314847
 20
2397.263255635129
 30
0.0
 10
4149.061328088348
 20
2397.263094219574
 30
0.0
 10
4149.058030033534
 20
2397.263094219574
 30
0.0
  0
SPLINE
  5
1259
330
1F
100
AcDbEntity
  8
SANINDUSA
100
AcDbSpline
210
0.0
220
0.0
230
1.0
 70
     8
 71
     3
 72
    51
 73
    47
 74
     0
 42
0.0000000001
 43
0.0000000001
 40
0.0
 40
0.0
 40
0.0
 40
0.0
 40
0.0624999999999984
 40
0.0624999999999984
 40
0.0937499999999977
 40
0.0937499999999977
 40
0.1249999999999969
 40
0.1249999999999969
 40
0.1874999999999956
 40
0.1874999999999956
 40
0.2187499999999955
 40
0.2187499999999955
 40
0.2499999999999953
 40
0.2499999999999953
 40
0.3124999999999935
 40
0.3124999999999935
 40
0.3437499999999927
 40
0.3437499999999927
 40
0.3749999999999918
 40
0.4062499999999911
 40
0.4062499999999911
 40
0.4374999999999903
 40
0.4374999999999903
 40
0.4999999999999907
 40
0.4999999999999907
 40
0.531249999999992
 40
0.531249999999992
 40
0.5624999999999933
 40
0.5624999999999933
 40
0.6249999999999942
 40
0.6249999999999942
 40
0.6562499999999947
 40
0.6562499999999947
 40
0.6874999999999952
 40
0.6874999999999952
 40
0.7499999999999964
 40
0.7499999999999964
 40
0.8124999999999976
 40
0.8124999999999976
 40
0.8437499999999982
 40
0.8437499999999982
 40
0.8749999999999989
 40
0.8749999999999989
 40
0.9374999999999994
 40
0.9374999999999994
 40
1.0
 40
1.0
 40
1.0
 40
1.0
 10
4149.058030033534
 20
2397.509396082373
 30
0.0
 10
4149.058757743754
 20
2397.509396082373
 30
0.0
 10
4149.059473197945
 20
2397.509445879811
 30
0.0
 10
4149.060528761308
 20
2397.50959230955
 30
0.0
 10
4149.060877657579
 20
2397.50965316648
 30
0.0
 10
4149.061569401194
 20
2397.509799570953
 30
0.0
 10
4149.061913050618
 20
2397.509885502232
 30
0.0
 10
4149.062912405457
 20
2397.510175095719
 30
0.0
 10
4149.063544242017
 20
2397.510411522473
 30
0.0
 10
4149.064440926984
 20
2397.510831088712
 30
0.0
 10
4149.064732386403
 20
2397.510982509929
 30
0.0
 10
4149.06529222295
 20
2397.511305024382
 30
0.0
 10
4149.065558645116
 20
2397.511474845352
 30
0.0
 10
4149.066318691334
 20
2397.512009347745
 30
0.0
 10
4149.066773467326
 20
2397.512398831424
 30
0.0
 10
4149.067375890733
 20
2397.513034551868
 30
0.0
 10
4149.067562647651
 20
2397.513254699831
 30
0.0
 10
4149.067901319672
 20
2397.513702786309
 30
0.0
 10
4149.068207385673
 20
2397.514160923011
 30
0.0
 10
4149.068449172784
 20
2397.514639005784
 30
0.0
 10
4149.06865835583
 20
2397.515127257724
 30
0.0
 10
4149.068746990999
 20
2397.515377864804
 30
0.0
 10
4149.068958884225
 20
2397.516134152473
 30
0.0
 10
4149.069029112145
 20
2397.516642421793
 30
0.0
 10
4149.069030480846
 20
2397.517410834304
 30
0.0
 10
4149.069013484368
 20
2397.517667978115
 30
0.0
 10
4149.068943482705
 20
2397.518184321524
 30
0.0
 10
4149.06889055824
 20
2397.518441700223
 30
0.0
 10
4149.068681402688
 20
2397.519200891481
 30
0.0
 10
4149.068474731993
 20
2397.519694217308
 30
0.0
 10
4149.068063101427
 20
2397.520414514276
 30
0.0
 10
4149.067907814036
 20
2397.520652560245
 30
0.0
 10
4149.067568093788
 20
2397.521113191595
 30
0.0
 10
4149.067383649622
 20
2397.52133622235
 30
0.0
 10
4149.066787586226
 20
2397.521983852868
 30
0.0
 10
4149.066333653584
 20
2397.522387204283
 30
0.0
 10
4149.065308123631
 20
2397.523134133886
 30
0.0
 10
4149.064751437309
 20
2397.523466556998
 30
0.0
 10
4149.063857936527
 20
2397.523902533849
 30
0.0
 10
4149.063550027712
 20
2397.524037528052
 30
0.0
 10
4149.062913629639
 20
2397.52428634206
 30
0.0
 10
4149.062583657145
 20
2397.524400494575
 30
0.0
 10
4149.061583083419
 20
2397.524703558479
 30
0.0
 10
4149.060896736329
 20
2397.524855954937
 30
0.0
 10
4149.059485913766
 20
2397.525062312003
 30
0.0
 10
4149.058757716403
 20
2397.525115673241
 30
0.0
 10
4149.058030033534
 20
2397.525115673241
 30
0.0
  0
SPLINE
  5
125A
330
1F
100
AcDbEntity
  8
SANINDUSA
100
AcDbSpline
210
0.0
220
0.0
230
1.0
 70
     8
 71
     3
 72
   100
 73
    96
 74
     0
 42
0.0000000001
 43
0.0000000001
 40
0.0
 40
0.0
 40
0.0
 40
0.0
 40
0.0312500000000007
 40
0.0312500000000007
 40
0.0468750000000011
 40
0.0468750000000011
 40
0.0625000000000015
 40
0.0625000000000015
 40
0.0937500000000022
 40
0.0937500000000022
 40
0.1093750000000026
 40
0.1093750000000026
 40
0.125000000000003
 40
0.125000000000003
 40
0.1562500000000037
 40
0.1562500000000037
 40
0.1875000000000044
 40
0.1875000000000044
 40
0.2031250000000047
 40
0.2031250000000047
 40
0.2109375000000048
 40
0.2109375000000048
 40
0.2187500000000049
 40
0.2187500000000049
 40
0.2500000000000049
 40
0.2500000000000049
 40
0.2812500000000049
 40
0.2812500000000049
 40
0.3125000000000049
 40
0.3125000000000049
 40
0.3203125000000049
 40
0.3203125000000049
 40
0.3281250000000049
 40
0.3281250000000049
 40
0.3437500000000048
 40
0.3437500000000048
 40
0.3750000000000045
 40
0.3750000000000045
 40
0.4062500000000044
 40
0.4062500000000044
 40
0.4218750000000043
 40
0.4218750000000043
 40
0.4375000000000041
 40
0.4375000000000041
 40
0.4687500000000039
 40
0.4687500000000039
 40
0.5000000000000036
 40
0.5000000000000036
 40
0.5156250000000035
 40
0.5156250000000035
 40
0.5234375000000035
 40
0.5234375000000035
 40
0.5312500000000035
 40
0.5312500000000035
 40
0.5625000000000031
 40
0.5625000000000031
 40
0.5937500000000029
 40
0.5937500000000029
 40
0.6250000000000026
 40
0.6250000000000026
 40
0.6328125000000026
 40
0.6328125000000026
 40
0.6406250000000026
 40
0.6406250000000026
 40
0.6562500000000025
 40
0.6562500000000025
 40
0.6875000000000023
 40
0.6875000000000023
 40
0.7187500000000023
 40
0.7187500000000023
 40
0.7343750000000023
 40
0.7343750000000023
 40
0.7421875000000023
 40
0.7421875000000023
 40
0.7500000000000022
 40
0.7500000000000022
 40
0.7812500000000019
 40
0.7812500000000019
 40
0.8125000000000017
 40
0.8125000000000017
 40
0.8437500000000015
 40
0.8437500000000015
 40
0.8593750000000014
 40
0.8593750000000014
 40
0.8750000000000014
 40
0.8750000000000014
 40
0.906250000000001
 40
0.906250000000001
 40
0.9375000000000008
 40
0.9375000000000008
 40
0.9531250000000007
 40
0.9531250000000007
 40
0.9687500000000003
 40
0.9687500000000003
 40
1.0
 40
1.0
 40
1.0
 40
1.0
 10
4149.058030033534
 20
2397.46286338
 30
0.0
 10
4149.054771467034
 20
2397.46286338
 30
0.0
 10
4149.051503053688
 20
2397.462705793566
 30
0.0
 10
4149.046585193796
 20
2397.462225495472
 30
0.0
 10
4149.044948736253
 20
2397.462025035865
 30
0.0
 10
4149.041697339558
 20
2397.461545665573
 30
0.0
 10
4149.040079951334
 20
2397.461266526507
 30
0.0
 10
4149.035252715206
 20
2397.46031075139
 30
0.0
 10
4149.032067712318
 20
2397.459516153647
 30
0.0
 10
4149.027340436981
 20
2397.458085754054
 30
0.0
 10
4149.025772841349
 20
2397.457568775325
 30
0.0
 10
4149.022682703601
 20
2397.456464552905
 30
0.0
 10
4149.02115654579
 20
2397.45587628398
 30
0.0
 10
4149.016634132397
 20
2397.454004289314
 30
0.0
 10
4149.013693751345
 20
2397.452613730128
 30
0.0
 10
4149.007960002633
 20
2397.449551510784
 30
0.0
 10
4149.005166629827
 20
2397.447879860494
 30
0.0
 10
4149.001089427325
 20
2397.44515659003
 30
0.0
 10
4148.999749213804
 20
2397.444212782207
 30
0.0
 10
4148.997767649381
 20
2397.442742085512
 30
0.0
 10
4148.997111050071
 20
2397.442241982171
 30
0.0
 10
4148.995813855441
 20
2397.441228209784
 30
0.0
 10
4148.995172858795
 20
2397.440714281163
 30
0.0
 10
4148.99200545502
 20
2397.438109818716
 30
0.0
 10
4148.989591423329
 20
2397.435915163138
 30
0.0
 10
4148.98499828679
 20
2397.431308180163
 30
0.0
 10
4148.982819179201
 20
2397.42889585531
 30
0.0
 10
4148.978695622753
 20
2397.423853781965
 30
0.0
 10
4148.976751148579
 20
2397.421224056932
 30
0.0
 10
4148.974472721871
 20
2397.417795910244
 30
0.0
 10
4148.974024513606
 20
2397.417102902787
 30
0.0
 10
4148.973148362277
 20
2397.415710533705
 30
0.0
 10
4148.972719776693
 20
2397.415010228716
 30
0.0
 10
4148.971462139089
 20
2397.412897104729
 30
0.0
 10
4148.970661183449
 20
2397.411472086605
 30
0.0
 10
4148.968368772199
 20
2397.407149072648
 30
0.0
 10
4148.966987436201
 20
2397.404203263201
 30
0.0
 10
4148.964516665812
 20
2397.398184894856
 30
0.0
 10
4148.963427218123
 20
2397.395112341614
 30
0.0
 10
4148.962014469091
 20
2397.390407359293
 30
0.0
 10
4148.961580482743
 20
2397.388822738891
 30
0.0
 10
4148.960788173387
 20
2397.385621671508
 30
0.0
 10
4148.960432992293
 20
2397.384018007349
 30
0.0
 10
4148.959487934375
 20
2397.379197808957
 30
0.0
 10
4148.959018158221
 20
2397.375972098195
 30
0.0
 10
4148.958390767254
 20
2397.369496823529
 30
0.0
 10
4148.958233257263
 20
2397.36624725171
 30
0.0
 10
4148.958232922412
 20
2397.361354863538
 30
0.0
 10
4148.958272203552
 20
2397.359721056953
 30
0.0
 10
4148.958391110533
 20
2397.35726576318
 30
0.0
 10
4148.958440748285
 20
2397.356446567592
 30
0.0
 10
4148.958560236009
 20
2397.3548066319
 30
0.0
 10
4148.958630200896
 20
2397.353984781922
 30
0.0
 10
4148.959029627044
 20
2397.349886905191
 30
0.0
 10
4148.959506341252
 20
2397.346650271793
 30
0.0
 10
4148.960765797862
 20
2397.340258130481
 30
0.0
 10
4148.961548521625
 20
2397.337102617634
 30
0.0
 10
4148.963418839088
 20
2397.330872401571
 30
0.0
 10
4148.964506413679
 20
2397.327797693288
 30
0.0
 10
4148.966062772842
 20
2397.324006491799
 30
0.0
 10
4148.966383919974
 20
2397.32325086884
 30
0.0
 10
4148.967046152348
 20
2397.321744907197
 30
0.0
 10
4148.967387723207
 20
2397.320993568974
 30
0.0
 10
4148.968437517907
 20
2397.318758401892
 30
0.0
 10
4148.96917146551
 20
2397.317291596554
 30
0.0
 10
4148.971473530365
 20
2397.312959708788
 30
0.0
 10
4148.973141564485
 20
2397.310162945899
 30
0.0
 10
4148.976741205978
 20
2397.30474963837
 30
0.0
 10
4148.978672820014
 20
2397.30213309822
 30
0.0
 10
4148.98176929362
 20
2397.298344388423
 30
0.0
 10
4148.98283470327
 20
2397.297104220781
 30
0.0
 10
4148.984483587389
 20
2397.29527868254
 30
0.0
 10
4148.985041682244
 20
2397.294675958891
 30
0.0
 10
4148.986175019658
 20
2397.293482236153
 30
0.0
 10
4148.986750793433
 20
2397.292890741343
 30
0.0
 10
4148.989656899241
 20
2397.289978972953
 30
0.0
 10
4148.992079556167
 20
2397.287783456776
 30
0.0
 10
4148.997113365879
 20
2397.2836505679
 30
0.0
 10
4148.999724540855
 20
2397.28171322559
 30
0.0
 10
4149.005135753506
 20
2397.278097185407
 30
0.0
 10
4149.00793578932
 20
2397.276418484927
 30
0.0
 10
4149.012280454894
 20
2397.274098476025
 30
0.0
 10
4149.013756774794
 20
2397.27335650052
 30
0.0
 10
4149.016729765208
 20
2397.271953615503
 30
0.0
 10
4149.018228225162
 20
2397.27129149283
 30
0.0
 10
4149.022758939992
 20
2397.269421243361
 30
0.0
 10
4149.025826418013
 20
2397.268328867346
 30
0.0
 10
4149.032053371096
 20
2397.26644641966
 30
0.0
 10
4149.035212845552
 20
2397.265656346008
 30
0.0
 10
4149.04002214818
 20
2397.264701539831
 30
0.0
 10
4149.041636960668
 20
2397.264421752958
 30
0.0
 10
4149.04489031381
 20
2397.263940142305
 30
0.0
 10
4149.046529272358
 20
2397.263738470173
 30
0.0
 10
4149.051444752222
 20
2397.263255635129
 30
0.0
 10
4149.05473197872
 20
2397.263094219574
 30
0.0
 10
4149.058030033534
 20
2397.263094219574
 30
0.0
  0
SPLINE
  5
125B
330
1F
100
AcDbEntity
  8
SANINDUSA
100
AcDbSpline
210
0.0
220
0.0
230
1.0
 70
     8
 71
     3
 72
    51
 73
    47
 74
     0
 42
0.0000000001
 43
0.0000000001
 40
0.0
 40
0.0
 40
0.0
 40
0.0
 40
0.0624999999999983
 40
0.0624999999999983
 40
0.0937499999999975
 40
0.0937499999999975
 40
0.1249999999999966
 40
0.1249999999999966
 40
0.1874999999999949
 40
0.1874999999999949
 40
0.2187499999999945
 40
0.2187499999999945
 40
0.2499999999999942
 40
0.2499999999999942
 40
0.3124999999999947
 40
0.3124999999999947
 40
0.3437499999999949
 40
0.3437499999999949
 40
0.3749999999999951
 40
0.4062499999999954
 40
0.4062499999999954
 40
0.4374999999999956
 40
0.4374999999999956
 40
0.4999999999999939
 40
0.4999999999999939
 40
0.5312499999999939
 40
0.5312499999999939
 40
0.562499999999994
 40
0.562499999999994
 40
0.6249999999999945
 40
0.6249999999999945
 40
0.6562499999999946
 40
0.6562499999999946
 40
0.6874999999999948
 40
0.6874999999999948
 40
0.7499999999999951
 40
0.7499999999999951
 40
0.8124999999999953
 40
0.8124999999999953
 40
0.843749999999996
 40
0.843749999999996
 40
0.8749999999999966
 40
0.8749999999999966
 40
0.9374999999999984
 40
0.9374999999999984
 40
1.0
 40
1.0
 40
1.0
 40
1.0
 10
4149.058030033534
 20
2397.525115673241
 30
0.0
 10
4149.057302341281
 20
2397.525115673241
 30
0.0
 10
4149.056586842331
 20
2397.525063453394
 30
0.0
 10
4149.055531134978
 20
2397.524910099155
 30
0.0
 10
4149.055182177855
 20
2397.524846385247
 30
0.0
 10
4149.054490289434
 20
2397.524693225354
 30
0.0
 10
4149.054146484764
 20
2397.524603362576
 30
0.0
 10
4149.053146552646
 20
2397.524300764849
 30
0.0
 10
4149.052514294879
 20
2397.524054034066
 30
0.0
 10
4149.05161700129
 20
2397.523617421519
 30
0.0
 10
4149.051325424085
 20
2397.523460079572
 30
0.0
 10
4149.050764903297
 20
2397.523125162534
 30
0.0
 10
4149.05049818911
 20
2397.522949057158
 30
0.0
 10
4149.049737420114
 20
2397.522395729615
 30
0.0
 10
4149.049282366552
 20
2397.521993730364
 30
0.0
 10
4149.048679850086
 20
2397.52134037474
 30
0.0
 10
4149.048492984067
 20
2397.521114397969
 30
0.0
 10
4149.048154324347
 20
2397.520655531449
 30
0.0
 10
4149.047848434829
 20
2397.520187372739
 30
0.0
 10
4149.047607099004
 20
2397.51970105205
 30
0.0
 10
4149.047398478592
 20
2397.519205589897
 30
0.0
 10
4149.047310182579
 20
2397.518951888857
 30
0.0
 10
4149.04709936629
 20
2397.518187946945
 30
0.0
 10
4149.047030033712
 20
2397.517677053781
 30
0.0
 10
4149.047030033444
 20
2397.516908547523
 30
0.0
 10
4149.047047490687
 20
2397.516652012908
 30
0.0
 10
4149.047118382252
 20
2397.51613819226
 30
0.0
 10
4149.047171723281
 20
2397.51588276244
 30
0.0
 10
4149.0473820177
 20
2397.515131039229
 30
0.0
 10
4149.047589299564
 20
2397.514644955375
 30
0.0
 10
4149.048001506793
 20
2397.513938316472
 30
0.0
 10
4149.048156920581
 20
2397.513705336507
 30
0.0
 10
4149.048496727624
 20
2397.513255482909
 30
0.0
 10
4149.048681161695
 20
2397.513038128268
 30
0.0
 10
4149.049277049001
 20
2397.512408135066
 30
0.0
 10
4149.049730669195
 20
2397.512017357698
 30
0.0
 10
4149.050755266215
 20
2397.511295853594
 30
0.0
 10
4149.051311476344
 20
2397.510975814294
 30
0.0
 10
4149.052204165758
 20
2397.510556977753
 30
0.0
 10
4149.05251179762
 20
2397.510427457648
 30
0.0
 10
4149.053147645771
 20
2397.510188952165
 30
0.0
 10
4149.053477429804
 20
2397.510079618035
 30
0.0
 10
4149.054477680447
 20
2397.509789518024
 30
0.0
 10
4149.055163797106
 20
2397.509643970714
 30
0.0
 10
4149.056574157602
 20
2397.509446977037
 30
0.0
 10
4149.057302314267
 20
2397.509396082373
 30
0.0
 10
4149.058030033534
 20
2397.509396082373
 30
0.0
  0
SPLINE
  5
125C
330
1F
100
AcDbEntity
  8
SANINDUSA
100
AcDbSpline
210
0.0
220
0.0
230
1.0
 70
     8
 71
     3
 72
    11
 73
     7
 74
     0
 42
0.0000000001
 43
0.0000000001
 40
0.0
 40
0.0
 40
0.0
 40
0.0
 40
0.2815073215199197
 40
0.5629893588669159
 40
0.8451732703306394
 40
0.9999999999999998
 40
0.9999999999999998
 40
0.9999999999999998
 40
0.9999999999999998
 10
4149.058030033534
 20
2397.515225135366
 30
0.0
 10
4149.059265766255
 20
2397.515308654788
 30
0.0
 10
4149.061737120709
 20
2397.51547568613
 30
0.0
 10
4149.06497755545
 20
2397.516808270963
 30
0.0
 10
4149.067241030479
 20
2397.518425447395
 30
0.0
 10
4149.067882847427
 20
2397.519706079164
 30
0.0
 10
4149.068110234154
 20
2397.520159789006
 30
0.0
  0
SPLINE
  5
125D
330
1F
100
AcDbEntity
  8
SANINDUSA
100
AcDbSpline
210
0.0
220
0.0
230
1.0
 70
     8
 71
     3
 72
    12
 73
     8
 74
     0
 42
0.0000000001
 43
0.0000000001
 40
0.0
 40
0.0
 40
0.0
 40
0.0
 40
0.0515242478748883
 40
0.3387200780873548
 40
0.6255687732388753
 40
0.9113674868597033
 40
1.0
 40
1.0
 40
1.0
 40
1.0
 10
4149.04795001359
 20
2397.520039834658
 30
0.0
 10
4149.048007183494
 20
2397.519887078686
 30
0.0
 10
4149.048383018072
 20
2397.518882861895
 30
0.0
 10
4149.050209762152
 20
2397.517365800153
 30
0.0
 10
4149.05321176189
 20
2397.515831498384
 30
0.0
 10
4149.056035121085
 20
2397.515270390879
 30
0.0
 10
4149.057648198186
 20
2397.515233797478
 30
0.0
 10
4149.058030033534
 20
2397.515225135366
 30
0.0
  0
SPLINE
  5
1262
330
1F
100
AcDbEntity
  8
SANINDUSA
100
AcDbSpline
210
0.0
220
0.0
230
1.0
 70
    11
 71
     3
 72
   130
 73
   126
 74
     0
 42
0.0000000001
 43
0.0000000001
 40
0.0
 40
0.0
 40
0.0
 40
0.0
 40
0.0312499999999999
 40
0.0312499999999999
 40
0.0468749999999998
 40
0.0468749999999998
 40
0.0624999999999997
 40
0.0624999999999997
 40
0.0937499999999996
 40
0.0937499999999996
 40
0.1015624999999995
 40
0.1015624999999995
 40
0.1093749999999994
 40
0.1093749999999994
 40
0.1249999999999993
 40
0.1249999999999993
 40
0.1406249999999992
 40
0.1406249999999992
 40
0.1484374999999991
 40
0.1484374999999991
 40
0.1562499999999991
 40
0.1562499999999991
 40
0.1874999999999988
 40
0.1874999999999988
 40
0.2031249999999987
 40
0.2031249999999987
 40
0.2109374999999986
 40
0.2109374999999986
 40
0.2187499999999986
 40
0.2187499999999986
 40
0.2499999999999983
 40
0.2499999999999983
 40
0.2578124999999982
 40
0.2578124999999982
 40
0.2656249999999981
 40
0.2656249999999981
 40
0.281249999999998
 40
0.281249999999998
 40
0.3124999999999976
 40
0.3124999999999976
 40
0.3203124999999976
 40
0.3203124999999976
 40
0.3281249999999976
 40
0.3281249999999976
 40
0.3437499999999975
 40
0.3437499999999975
 40
0.3593749999999974
 40
0.3593749999999974
 40
0.3671874999999974
 40
0.3671874999999974
 40
0.3749999999999973
 40
0.3749999999999973
 40
0.4062499999999973
 40
0.4062499999999973
 40
0.4218749999999972
 40
0.4218749999999972
 40
0.4374999999999971
 40
0.4374999999999971
 40
0.4687499999999971
 40
0.4687499999999971
 40
0.484374999999997
 40
0.484374999999997
 40
0.499999999999997
 40
0.499999999999997
 40
0.5156249999999969
 40
0.5156249999999969
 40
0.5234374999999969
 40
0.5234374999999969
 40
0.5312499999999969
 40
0.5312499999999969
 40
0.5624999999999969
 40
0.5624999999999969
 40
0.5781249999999969
 40
0.5781249999999969
 40
0.5859374999999969
 40
0.5859374999999969
 40
0.5937499999999968
 40
0.5937499999999968
 40
0.6249999999999969
 40
0.6249999999999969
 40
0.6328124999999969
 40
0.6328124999999969
 40
0.6406249999999968
 40
0.6406249999999968
 40
0.6562499999999969
 40
0.6562499999999969
 40
0.6874999999999969
 40
0.6874999999999969
 40
0.695312499999997
 40
0.695312499999997
 40
0.7031249999999972
 40
0.7031249999999972
 40
0.7187499999999973
 40
0.7187499999999973
 40
0.7343749999999975
 40
0.7343749999999975
 40
0.7421874999999975
 40
0.7421874999999975
 40
0.7499999999999976
 40
0.7499999999999976
 40
0.7812499999999979
 40
0.7812499999999979
 40
0.7968749999999981
 40
0.7968749999999981
 40
0.812499999999998
 40
0.812499999999998
 40
0.8437499999999984
 40
0.8437499999999984
 40
0.8593749999999985
 40
0.8593749999999985
 40
0.8749999999999987
 40
0.8749999999999987
 40
0.8906249999999989
 40
0.8906249999999989
 40
0.9062499999999991
 40
0.9062499999999991
 40
0.9374999999999992
 40
0.9374999999999992
 40
0.9531249999999996
 40
0.9531249999999996
 40
0.9609374999999996
 40
0.9609374999999996
 40
0.9687499999999996
 40
0.9687499999999996
 40
1.0
 40
1.0
 40
1.0
 40
1.0
 10
4149.058030033534
 20
2397.399044217193
 30
0.0
 10
4149.060411134984
 20
2397.399044217193
 30
0.0
 10
4149.062758259111
 20
2397.398810673167
 30
0.0
 10
4149.066229367671
 20
2397.398119583993
 30
0.0
 10
4149.067380078654
 20
2397.397831401486
 30
0.0
 10
4149.069655949888
 20
2397.397139721025
 30
0.0
 10
4149.070767613896
 20
2397.39674055046
 30
0.0
 10
4149.074026368452
 20
2397.39538827971
 30
0.0
 10
4149.076097976753
 20
2397.394281953527
 30
0.0
 10
4149.078558358143
 20
2397.392636919167
 30
0.0
 10
4149.079045168209
 20
2397.39229373374
 30
0.0
 10
4149.07999895601
 20
2397.391585100732
 30
0.0
 10
4149.080465167314
 20
2397.391220335532
 30
0.0
 10
4149.081832328226
 20
2397.390095256175
 30
0.0
 10
4149.082701890402
 20
2397.389304241933
 30
0.0
 10
4149.084358721974
 20
2397.387641722744
 30
0.0
 10
4149.085145989813
 20
2397.386770216277
 30
0.0
 10
4149.086264506827
 20
2397.385401937796
 30
0.0
 10
4149.086626930293
 20
2397.384935657484
 30
0.0
 10
4149.087330609056
 20
2397.383982392143
 30
0.0
 10
4149.087672752282
 20
2397.383494007951
 30
0.0
 10
4149.089314572172
 20
2397.381021903868
 30
0.0
 10
4149.090414484306
 20
2397.378944469052
 30
0.0
 10
4149.091755209182
 20
2397.37568390432
 30
0.0
 10
4149.092150214853
 20
2397.374572803746
 30
0.0
 10
4149.092662838574
 20
2397.372868835201
 30
0.0
 10
4149.092820547212
 20
2397.37229362097
 30
0.0
 10
4149.093105840874
 20
2397.371142901613
 30
0.0
 10
4149.093233885248
 20
2397.370566045177
 30
0.0
 10
4149.093802414396
 20
2397.36767441441
 30
0.0
 10
4149.094029930161
 20
2397.365337810441
 30
0.0
 10
4149.094029819219
 20
2397.362387892898
 30
0.0
 10
4149.094015438423
 20
2397.3617964376
 30
0.0
 10
4149.093957426206
 20
2397.360610528743
 30
0.0
 10
4149.093913686889
 20
2397.360016079542
 30
0.0
 10
4149.093740013131
 20
2397.358247858103
 30
0.0
 10
4149.093567511573
 20
2397.357082568237
 30
0.0
 10
4149.092883895686
 20
2397.353626306771
 30
0.0
 10
4149.092208285339
 20
2397.351374558193
 30
0.0
 10
4149.091077905732
 20
2397.348628033384
 30
0.0
 10
4149.090837627272
 20
2397.348082959426
 30
0.0
 10
4149.090333562447
 20
2397.347011724332
 30
0.0
 10
4149.090069182154
 20
2397.346484077442
 30
0.0
 10
4149.08923954158
 20
2397.344924697488
 30
0.0
 10
4149.088637867586
 20
2397.34391646964
 30
0.0
 10
4149.087338109938
 20
2397.341962246111
 30
0.0
 10
4149.086640026357
 20
2397.341016250376
 30
0.0
 10
4149.085519092776
 20
2397.339644899361
 30
0.0
 10
4149.085133125447
 20
2397.339195736623
 30
0.0
 10
4149.084336018936
 20
2397.338313659332
 30
0.0
 10
4149.083926156735
 20
2397.337882266966
 30
0.0
 10
4149.081836050402
 20
2397.335788660233
 30
0.0
 10
4149.080020568144
 20
2397.334299302804
 30
0.0
 10
4149.0770866782
 20
2397.332337829098
 30
0.0
 10
4149.076073390374
 20
2397.33172970779
 30
0.0
 10
4149.07397382471
 20
2397.330607900772
 30
0.0
 10
4149.072904064341
 20
2397.330103109411
 30
0.0
 10
4149.06964184041
 20
2397.328753552784
 30
0.0
 10
4149.06739477095
 20
2397.328070894956
 30
0.0
 10
4149.063914076213
 20
2397.327377615746
 30
0.0
 10
4149.062731795826
 20
2397.327202309012
 30
0.0
 10
4149.060380770544
 20
2397.326971289492
 30
0.0
 10
4149.059206135559
 20
2397.326914038231
 30
0.0
 10
4149.056858588275
 20
2397.32691388664
 30
0.0
 10
4149.055685676013
 20
2397.326970988757
 30
0.0
 10
4149.05392761243
 20
2397.327143254744
 30
0.0
 10
4149.053341809087
 20
2397.32721513754
 30
0.0
 10
4149.052170645019
 20
2397.327388283989
 30
0.0
 10
4149.051583745387
 20
2397.327489868735
 30
0.0
 10
4149.048670431599
 20
2397.32806882599
 30
0.0
 10
4149.046421024405
 20
2397.328752908716
 30
0.0
 10
4149.043164680948
 20
2397.33009926382
 30
0.0
 10
4149.042099005747
 20
2397.330601814233
 30
0.0
 10
4149.040530975973
 20
2397.331438528802
 30
0.0
 10
4149.040011984349
 20
2397.331732156786
 30
0.0
 10
4149.038993687522
 20
2397.332342107791
 30
0.0
 10
4149.038493996551
 20
2397.332658526147
 30
0.0
 10
4149.036042014088
 20
2397.334296846212
 30
0.0
 10
4149.034227952788
 20
2397.335785996315
 30
0.0
 10
4149.032145013313
 20
2397.337870830317
 30
0.0
 10
4149.031737732006
 20
2397.33829905737
 30
0.0
 10
4149.030942110779
 20
2397.339178429109
 30
0.0
 10
4149.030552998917
 20
2397.339630613922
 30
0.0
 10
4149.029426494864
 20
2397.34100752042
 30
0.0
 10
4149.028726314469
 20
2397.341956055621
 30
0.0
 10
4149.026773731984
 20
2397.344890740443
 30
0.0
 10
4149.025667864501
 20
2397.346965111916
 30
0.0
 10
4149.024536803952
 20
2397.349709360456
 30
0.0
 10
4149.024323337364
 20
2397.350265969825
 30
0.0
 10
4149.023926459338
 20
2397.351382161884
 30
0.0
 10
4149.023742389052
 20
2397.351943269078
 30
0.0
 10
4149.023232534233
 20
2397.353635467023
 30
0.0
 10
4149.02294900558
 20
2397.35477541315
 30
0.0
 10
4149.02249321932
 20
2397.357078624329
 30
0.0
 10
4149.022320958922
 20
2397.3582418888
 30
0.0
 10
4149.022147354801
 20
2397.360004554288
 30
0.0
 10
4149.02210364336
 20
2397.360595076261
 30
0.0
 10
4149.022045086107
 20
2397.361782169615
 30
0.0
 10
4149.022030395609
 20
2397.362377160141
 30
0.0
 10
4149.022029553106
 20
2397.36533583741
 30
0.0
 10
4149.022257834735
 20
2397.367673109068
 30
0.0
 10
4149.0229378788
 20
2397.371135264967
 30
0.0
 10
4149.023221244313
 20
2397.372281971387
 30
0.0
 10
4149.023905486655
 20
2397.374560156488
 30
0.0
 10
4149.024302083005
 20
2397.375676637147
 30
0.0
 10
4149.02564424479
 20
2397.378942248854
 30
0.0
 10
4149.026743135709
 20
2397.381016363478
 30
0.0
 10
4149.028703038676
 20
2397.38397038006
 30
0.0
 10
4149.02941248798
 20
2397.38493266866
 30
0.0
 10
4149.030908414969
 20
2397.386763940663
 30
0.0
 10
4149.031697035293
 20
2397.387637116257
 30
0.0
 10
4149.033353939233
 20
2397.389300270395
 30
0.0
 10
4149.034222225047
 20
2397.390090246642
 30
0.0
 10
4149.036039091586
 20
2397.391586342498
 30
0.0
 10
4149.036988982314
 20
2397.39229332743
 30
0.0
 10
4149.039955105198
 20
2397.394278820086
 30
0.0
 10
4149.042030570968
 20
2397.395386507709
 30
0.0
 10
4149.045284717185
 20
2397.396737576345
 30
0.0
 10
4149.046393106884
 20
2397.397135785595
 30
0.0
 10
4149.04809205357
 20
2397.397653005204
 30
0.0
 10
4149.04866578441
 20
2397.397812361509
 30
0.0
 10
4149.049818678562
 20
2397.398101998316
 30
0.0
 10
4149.05039703133
 20
2397.398232159101
 30
0.0
 10
4149.053298194709
 20
2397.398810666467
 30
0.0
 10
4149.055648932083
 20
2397.399044217193
 30
0.0
 10
4149.058030033534
 20
2397.399044217193
 30
0.0
  0
CIRCLE
  5
1263
330
1F
100
AcDbEntity
  8
SANINDUSA
100
AcDbCircle
 10
4149.058030033534
 20
2397.362979792635
 30
0.0
 40
0.0225
  0
LINE
  5
1273
330
1F
100
AcDbEntity
  8
SANINDUSA
100
AcDbLine
 10
4149.955895207614
 20
2397.299791655479
 30
0.0
 11
4149.956784564792
 21
2397.289626239775
 31
0.0
  0
LINE
  5
1274
330
1F
100
AcDbEntity
  8
SANINDUSA
100
AcDbLine
 10
4150.024635944306
 20
2397.289626239775
 30
0.0
 11
4150.025525301486
 21
2397.299791655479
 31
0.0
  0
ARC
  5
1276
330
1F
100
AcDbEntity
  8
SANINDUSA
100
AcDbCircle
 10
4149.804470312847
 20
2397.416791652797
 30
0.0
 40
0.0030000000000001
100
AcDbArc
 50
90.0
 51
193.3483417664805
  0
SPLINE
  5
1277
330
1F
100
AcDbEntity
  8
SANINDUSA
100
AcDbSpline
210
0.0
220
0.0
230
1.0
 70
    24
 71
     3
 72
    98
 73
    94
 74
     0
 42
0.0000000001
 43
0.0000000001
 40
0.0
 40
0.0
 40
0.0
 40
0.0
 40
0.0312499999999998
 40
0.0312499999999998
 40
0.0624999999999995
 40
0.0624999999999995
 40
0.0937499999999992
 40
0.0937499999999992
 40
0.1015624999999991
 40
0.1015624999999991
 40
0.109374999999999
 40
0.109374999999999
 40
0.1249999999999989
 40
0.1249999999999989
 40
0.1562499999999984
 40
0.1562499999999984
 40
0.187499999999998
 40
0.187499999999998
 40
0.2031249999999977
 40
0.2031249999999977
 40
0.2109374999999977
 40
0.2109374999999977
 40
0.2187499999999976
 40
0.2187499999999976
 40
0.2499999999999975
 40
0.2499999999999975
 40
0.2812499999999974
 40
0.2812499999999974
 40
0.3124999999999973
 40
0.3124999999999973
 40
0.3203124999999973
 40
0.3203124999999973
 40
0.3281249999999973
 40
0.3281249999999973
 40
0.3437499999999973
 40
0.3437499999999973
 40
0.3749999999999973
 40
0.3749999999999973
 40
0.4062499999999975
 40
0.4062499999999975
 40
0.4218749999999975
 40
0.4218749999999975
 40
0.4374999999999975
 40
0.4374999999999975
 40
0.4687499999999976
 40
0.4687499999999976
 40
0.4999999999999976
 40
0.4999999999999976
 40
0.5312499999999977
 40
0.5312499999999977
 40
0.5390624999999977
 40
0.5390624999999977
 40
0.5468749999999978
 40
0.5468749999999978
 40
0.5624999999999977
 40
0.5624999999999977
 40
0.5937499999999978
 40
0.5937499999999978
 40
0.6249999999999979
 40
0.6249999999999979
 40
0.6406249999999981
 40
0.6406249999999981
 40
0.6484374999999981
 40
0.6484374999999981
 40
0.6562499999999981
 40
0.6562499999999981
 40
0.6874999999999983
 40
0.6874999999999983
 40
0.7187499999999984
 40
0.7187499999999984
 40
0.7499999999999986
 40
0.7499999999999986
 40
0.7812499999999988
 40
0.7812499999999988
 40
0.8124999999999989
 40
0.8124999999999989
 40
0.8437499999999992
 40
0.8437499999999992
 40
0.8593749999999992
 40
0.8593749999999992
 40
0.8749999999999992
 40
0.8749999999999992
 40
0.9062499999999996
 40
0.9062499999999996
 40
0.9374999999999998
 40
0.9374999999999998
 40
0.9531249999999998
 40
0.9531249999999998
 40
0.9609374999999998
 40
0.9609374999999998
 40
0.9687499999999998
 40
0.9687499999999998
 40
1.0
 40
1.0
 40
1.0
 40
1.0
 10
4149.804470312847
 20
2397.419791652797
 30
0.0
 10
4149.804470312847
 20
2397.419791652797
 30
0.0
 10
4149.804780676827
 20
2397.419791652797
 30
0.0
 10
4149.805993866481
 20
2397.419791652797
 30
0.0
 10
4149.806896802132
 20
2397.419791652797
 30
0.0
 10
4149.809291615977
 20
2397.419791652797
 30
0.0
 10
4149.810783456434
 20
2397.419791652797
 30
0.0
 10
4149.813021148403
 20
2397.419791652797
 30
0.0
 10
4149.813487388794
 20
2397.419791652797
 30
0.0
 10
4149.814457630461
 20
2397.419791652797
 30
0.0
 10
4149.814962376384
 20
2397.419791652797
 30
0.0
 10
4149.816526950994
 20
2397.419791652797
 30
0.0
 10
4149.817637212266
 20
2397.419791652797
 30
0.0
 10
4149.821165939667
 20
2397.419791652797
 30
0.0
 10
4149.823781643748
 20
2397.419791652797
 30
0.0
 10
4149.829525836509
 20
2397.419791652797
 30
0.0
 10
4149.832654345163
 20
2397.419791652797
 30
0.0
 10
4149.837736703953
 20
2397.419791652797
 30
0.0
 10
4149.839495911579
 20
2397.419791652797
 30
0.0
 10
4149.842233474077
 20
2397.419791652797
 30
0.0
 10
4149.843162463578
 20
2397.419791652797
 30
0.0
 10
4149.845053692888
 20
2397.419791652797
 30
0.0
 10
4149.846015471346
 20
2397.419791652797
 30
0.0
 10
4149.850881265716
 20
2397.419791652797
 30
0.0
 10
4149.854975340718
 20
2397.419791652797
 30
0.0
 10
4149.863556255763
 20
2397.419791652797
 30
0.0
 10
4149.868043116211
 20
2397.419791652797
 30
0.0
 10
4149.877407479618
 20
2397.419791652797
 30
0.0
 10
4149.882284946997
 20
2397.419791652797
 30
0.0
 10
4149.888634293944
 20
2397.419791652797
 30
0.0
 10
4149.889916831806
 20
2397.419791652797
 30
0.0
 10
4149.892507496416
 20
2397.419791652797
 30
0.0
 10
4149.893812173728
 20
2397.419791652797
 30
0.0
 10
4149.897745347734
 20
2397.419791652797
 30
0.0
 10
4149.900396588718
 20
2397.419791652797
 30
0.0
 10
4149.908436148194
 20
2397.419791652797
 30
0.0
 10
4149.91391003067
 20
2397.419791652797
 30
0.0
 10
4149.925084798879
 20
2397.419791652797
 30
0.0
 10
4149.930785707065
 20
2397.419791652797
 30
0.0
 10
4149.939509720819
 20
2397.419791652797
 30
0.0
 10
4149.94244656935
 20
2397.419791652797
 30
0.0
 10
4149.948379226532
 20
2397.419791652797
 30
0.0
 10
4149.951381677659
 20
2397.419791652797
 30
0.0
 10
4149.960382380124
 20
2397.419791652797
 30
0.0
 10
4149.966399096107
 20
2397.419791652797
 30
0.0
 10
4149.978464107625
 20
2397.419791652797
 30
0.0
 10
4149.984512404766
 20
2397.419791652797
 30
0.0
 10
4149.996640935234
 20
2397.419791652797
 30
0.0
 10
4150.002721170952
 20
2397.419791652797
 30
0.0
 10
4150.01034183389
 20
2397.419791652797
 30
0.0
 10
4150.011868861217
 20
2397.419791652797
 30
0.0
 10
4150.014915784511
 20
2397.419791652797
 30
0.0
 10
4150.016433750273
 20
2397.419791652797
 30
0.0
 10
4150.020971351952
 20
2397.419791652797
 30
0.0
 10
4150.02397470594
 20
2397.419791652797
 30
0.0
 10
4150.032920646482
 20
2397.419791652797
 30
0.0
 10
4150.0387993295
 20
2397.419791652797
 30
0.0
 10
4150.050389775155
 20
2397.419791652797
 30
0.0
 10
4150.056101536203
 20
2397.419791652797
 30
0.0
 10
4150.064541754012
 20
2397.419791652797
 30
0.0
 10
4150.067333870832
 20
2397.419791652797
 30
0.0
 10
4150.071489660828
 20
2397.419791652797
 30
0.0
 10
4150.072869597432
 20
2397.419791652797
 30
0.0
 10
4150.075603544585
 20
2397.419791652797
 30
0.0
 10
4150.076959477602
 20
2397.419791652797
 30
0.0
 10
4150.083684567499
 20
2397.419791652797
 30
0.0
 10
4150.088890539025
 20
2397.419791652797
 30
0.0
 10
4150.09896142236
 20
2397.419791652797
 30
0.0
 10
4150.103826326382
 20
2397.419791652797
 30
0.0
 10
4150.113215455555
 20
2397.419791652797
 30
0.0
 10
4150.117739723824
 20
2397.419791652797
 30
0.0
 10
4150.12643431908
 20
2397.419791652797
 30
0.0
 10
4150.130534639111
 20
2397.419791652797
 30
0.0
 10
4150.138254655607
 20
2397.419791652797
 30
0.0
 10
4150.141875290728
 20
2397.419791652797
 30
0.0
 10
4150.148637836868
 20
2397.419791652797
 30
0.0
 10
4150.15177970035
 20
2397.419791652797
 30
0.0
 10
4150.156126316747
 20
2397.419791652797
 30
0.0
 10
4150.157514975784
 20
2397.419791652797
 30
0.0
 10
4150.160162874054
 20
2397.419791652797
 30
0.0
 10
4150.16141303067
 20
2397.419791652797
 30
0.0
 10
4150.164945563759
 20
2397.419791652797
 30
0.0
 10
4150.167010642504
 20
2397.419791652797
 30
0.0
 10
4150.170572860857
 20
2397.419791652797
 30
0.0
 10
4150.172069995235
 20
2397.419791652797
 30
0.0
 10
4150.173881854736
 20
2397.419791652797
 30
0.0
 10
4150.174413298821
 20
2397.419791652797
 30
0.0
 10
4150.175100151279
 20
2397.419791652797
 30
0.0
 10
4150.175310705254
 20
2397.419791652797
 30
0.0
 10
4150.175694618127
 20
2397.419791652797
 30
0.0
 10
4150.175868096836
 20
2397.419791652797
 30
0.0
 10
4150.176639773167
 20
2397.419791652797
 30
0.0
 10
4150.17695019625
 20
2397.419791652797
 30
0.0
 10
4150.17695019625
 20
2397.419791652797
 30
0.0
  0
ARC
  5
1278
330
1F
100
AcDbEntity
  8
SANINDUSA
100
AcDbCircle
 10
4150.17695019625
 20
2397.416791652797
 30
0.0
 40
0.0030000000000001
100
AcDbArc
 50
346.6516582335195
 51
90.0
  0
SPLINE
  5
1279
330
1F
100
AcDbEntity
  8
SANINDUSA
100
AcDbSpline
210
0.0
220
0.0
230
1.0
 70
    24
 71
     3
 72
    24
 73
    20
 74
     0
 42
0.0000000001
 43
0.0000000001
 40
0.5
 40
0.5
 40
0.5
 40
0.5
 40
0.53125
 40
0.5625
 40
0.59375
 40
0.625
 40
0.65625
 40
0.6875
 40
0.71875
 40
0.75
 40
0.75
 40
0.78125
 40
0.8125
 40
0.84375
 40
0.875
 40
0.90625
 40
0.9375
 40
0.96875
 40
1.0
 40
1.0
 40
1.0
 40
1.0
 10
4150.10571025455
 20
2397.299791652797
 30
0.0
 10
4150.10571025455
 20
2397.299791652797
 30
0.0
 10
4150.104228060873
 20
2397.299791652797
 30
0.0
 10
4150.097641412634
 20
2397.299791652797
 30
0.0
 10
4150.086945890556
 20
2397.299791652797
 30
0.0
 10
4150.072551869713
 20
2397.299791652797
 30
0.0
 10
4150.055012817799
 20
2397.299791652797
 30
0.0
 10
4150.035002635513
 20
2397.299791652797
 30
0.0
 10
4150.01329027183
 20
2397.299791652797
 30
0.0
 10
4149.9982369869
 20
2397.299791652797
 30
0.0
 10
4149.983183522199
 20
2397.299791652797
 30
0.0
 10
4149.968130237269
 20
2397.299791652797
 30
0.0
 10
4149.946417873586
 20
2397.299791652797
 30
0.0
 10
4149.926407691299
 20
2397.299791652797
 30
0.0
 10
4149.908868639387
 20
2397.299791652797
 30
0.0
 10
4149.894474618544
 20
2397.299791652797
 30
0.0
 10
4149.883779096464
 20
2397.299791652797
 30
0.0
 10
4149.877192448226
 20
2397.299791652797
 30
0.0
 10
4149.87571025455
 20
2397.299791652797
 30
0.0
 10
4149.87571025455
 20
2397.299791652797
 30
0.0
  0
SPLINE
  5
127A
330
1F
100
AcDbEntity
  8
SANINDUSA
100
AcDbSpline
210
0.0
220
0.0
230
1.0
 70
     8
 71
     3
 72
     8
 73
     4
 74
     0
 42
0.0000000001
 43
0.0000000001
 40
0.0260023114784218
 40
0.0260023114784218
 40
0.0260023114784218
 40
0.0260023114784218
 40
1.0
 40
1.0
 40
1.0
 40
1.0
 10
4149.801551359564
 20
2397.416099040552
 30
0.0
 10
4149.812460317345
 20
2397.370124199125
 30
0.0
 10
4149.838573302842
 20
2397.329125703739
 30
0.0
 10
4149.87571025455
 20
2397.299791652797
 30
0.0
  0
SPLINE
  5
127B
330
1F
100
AcDbEntity
  8
SANINDUSA
100
AcDbSpline
210
0.0
220
0.0
230
1.0
 70
     8
 71
     3
 72
     8
 73
     4
 74
     0
 42
0.0000000001
 43
0.0000000001
 40
0.0260023114784219
 40
0.0260023114784219
 40
0.0260023114784219
 40
0.0260023114784219
 40
1.0
 40
1.0
 40
1.0
 40
1.0
 10
4150.10571025455
 20
2397.299791652797
 30
0.0
 10
4150.142847206257
 20
2397.329125703739
 30
0.0
 10
4150.168960191754
 20
2397.370124199125
 30
0.0
 10
4150.179869149535
 20
2397.416099040552
 30
0.0
  0
LINE
  5
127C
330
1F
100
AcDbEntity
  8
SANINDUSA
100
AcDbLine
 10
4149.956784564792
 20
2397.289626239775
 30
0.0
 11
4150.024635944306
 21
2397.289626239775
 31
0.0
  0
SPLINE
  5
127D
330
1F
100
AcDbEntity
  8
SANINDUSA
100
AcDbSpline
210
0.0
220
0.0
230
1.0
 70
     8
 71
     3
 72
    18
 73
    14
 74
     0
 42
0.0000000001
 43
0.0000000001
 40
0.0
 40
0.0
 40
0.0
 40
0.0
 40
0.2500000000000003
 40
0.2500000000000003
 40
0.3125000000000004
 40
0.3125000000000004
 40
0.3750000000000005
 40
0.3750000000000005
 40
0.5000000000000007
 40
0.5000000000000007
 40
0.7500000000000004
 40
0.7500000000000004
 40
1.0
 40
1.0
 40
1.0
 40
1.0
 10
4150.337592102487
 20
2397.30981935133
 30
0.0
 10
4150.331045490142
 20
2397.315244416351
 30
0.0
 10
4150.324874400425
 20
2397.321056071711
 30
0.0
 10
4150.317627414534
 20
2397.328801277329
 30
0.0
 10
4150.316201445284
 20
2397.330374436867
 30
0.0
 10
4150.31339664205
 20
2397.33356928042
 30
0.0
 10
4150.312017847135
 20
2397.335191109337
 30
0.0
 10
4150.307974658857
 20
2397.340102330505
 30
0.0
 10
4150.305395481154
 20
2397.343446193708
 30
0.0
 10
4150.297999022154
 20
2397.353682272528
 30
0.0
 10
4150.293521485167
 20
2397.360778180079
 30
0.0
 10
4150.28546544005
 20
2397.375509003258
 30
0.0
 10
4150.281886840731
 20
2397.383143864214
 30
0.0
 10
4150.278775767111
 20
2397.391059027771
 30
0.0
  0
SPLINE
  5
127E
330
1F
100
AcDbEntity
  8
SANINDUSA
100
AcDbSpline
210
0.0
220
0.0
230
1.0
 70
     8
 71
     3
 72
     8
 73
     4
 74
     0
 42
0.0000000001
 43
0.0000000001
 40
0.0
 40
0.0
 40
0.0
 40
0.0
 40
1.0
 40
1.0
 40
1.0
 40
1.0
 10
4150.622580801726
 20
2397.391059027771
 30
0.0
 10
4150.610492549479
 20
2397.360304212766
 30
0.0
 10
4150.590951600464
 20
2397.332871114356
 30
0.0
 10
4150.567491499127
 20
2397.312985121855
 30
0.0
  0
ARC
  5
127F
330
1F
100
AcDbEntity
  8
SANINDUSA
100
AcDbCircle
 10
4150.636918226119
 20
2397.416791652797
 30
0.0
 40
0.003
100
AcDbArc
 50
346.6516582335195
 51
90.0
  0
ARC
  5
1280
330
1F
100
AcDbEntity
  8
SANINDUSA
100
AcDbCircle
 10
4150.264438342718
 20
2397.416791652797
 30
0.0
 40
0.003
100
AcDbArc
 50
90.0
 51
193.3483417664805
  0
LINE
  5
1281
330
1F
100
AcDbEntity
  8
SANINDUSA
100
AcDbLine
 10
4150.559678281797
 20
2397.30291948372
 30
0.0
 11
4150.559678281797
 21
2397.299791655479
 31
0.0
  0
SPLINE
  5
1283
330
1F
100
AcDbEntity
  8
SANINDUSA
100
AcDbSpline
210
0.0
220
0.0
230
1.0
 70
    24
 71
     3
 72
    12
 73
     8
 74
     0
 42
0.0000000001
 43
0.0000000001
 40
0.0
 40
0.0
 40
0.0
 40
0.0
 40
0.2324923248785355
 40
0.4638139510632701
 40
0.6934063887285119
 40
0.9234796966319519
 40
1.0
 40
1.0
 40
1.0
 40
1.0
 10
4150.559678281797
 20
2397.299791655479
 30
0.0
 10
4150.559574296652
 20
2397.299791655479
 30
0.0
 10
4150.559366849974
 20
2397.299791655479
 30
0.0
 10
4150.557735835581
 20
2397.299791655479
 30
0.0
 10
4150.555087891803
 20
2397.299791655479
 30
0.0
 10
4150.552435699898
 20
2397.299791655479
 30
0.0
 10
4150.550358498303
 20
2397.299791655479
 30
0.0
 10
4150.54984006579
 20
2397.299791655479
 30
0.0
  0
ARC
  5
1285
330
1F
100
AcDbEntity
  8
SANINDUSA
100
AcDbCircle
 10
4150.362101780362
 20
2397.357583252905
 30
0.0
 40
0.0290000000000001
100
AcDbArc
 50
235.5731111864758
 51
249.2645135436139
  0
ARC
  5
1286
330
1F
100
AcDbEntity
  8
SANINDUSA
100
AcDbCircle
 10
4150.362101780362
 20
2397.357583252905
 30
0.0
 40
0.0290000000000001
100
AcDbArc
 50
249.2645135436139
 51
267.9847148968586
  0
LINE
  5
1287
330
1F
100
AcDbEntity
  8
SANINDUSA
100
AcDbLine
 10
4150.361101414215
 20
2397.328601188002
 30
0.0
 11
4150.36108196075
 21
2397.328601188002
 31
0.0
  0
ARC
  5
1288
330
1F
100
AcDbEntity
  8
SANINDUSA
100
AcDbCircle
 10
4150.53925667488
 20
2397.357584545862
 30
0.0
 40
0.029
100
AcDbArc
 50
290.731338199851
 51
304.4272336421145
  0
ARC
  5
128A
330
1F
100
AcDbEntity
  8
SANINDUSA
100
AcDbCircle
 10
4150.53925667488
 20
2397.357584545862
 30
0.0
 40
0.0200000000000001
100
AcDbArc
 50
272.004708508538
 51
304.4272336421145
  0
LINE
  5
128B
330
1F
100
AcDbEntity
  8
SANINDUSA
100
AcDbLine
 10
4150.361417721165
 20
2397.337595618306
 30
0.0
 11
4150.361398461414
 21
2397.337595625756
 31
0.0
  0
ARC
  5
128C
330
1F
100
AcDbEntity
  8
SANINDUSA
100
AcDbCircle
 10
4150.362101780362
 20
2397.357583252905
 30
0.0
 40
0.0200000000000001
100
AcDbArc
 50
235.5731111864758
 51
267.9847148968586
  0
LINE
  5
128E
330
1F
100
AcDbEntity
  8
SANINDUSA
100
AcDbLine
 10
4150.549678283883
 20
2397.302779852389
 30
0.0
 11
4150.549678283883
 21
2397.299791655479
 31
0.0
  0
LINE
  5
128F
330
1F
100
AcDbEntity
  8
SANINDUSA
100
AcDbLine
 10
4150.552002686215
 20
2397.312813281057
 30
0.0
 11
4150.549522283625
 21
2397.330462283431
 31
0.0
  0
LINE
  5
1290
330
1F
100
AcDbEntity
  8
SANINDUSA
100
AcDbLine
 10
4150.543734478904
 20
2397.299791655479
 30
0.0
 11
4150.540943625522
 21
2397.319649650691
 31
0.0
  0
LINE
  5
1291
330
1F
100
AcDbEntity
  8
SANINDUSA
100
AcDbLine
 10
4150.543734478904
 20
2397.299791655479
 30
0.0
 11
4150.485493331355
 21
2397.299791655479
 31
0.0
  0
LINE
  5
1292
330
1F
100
AcDbEntity
  8
SANINDUSA
100
AcDbLine
 10
4150.530645611835
 20
2397.328250645636
 30
0.0
 11
4150.530659343255
 21
2397.328250630735
 31
0.0
  0
ARC
  5
1293
330
1F
100
AcDbEntity
  8
SANINDUSA
100
AcDbCircle
 10
4150.531040941522
 20
2397.318257916258
 30
0.0
 40
0.0100000000000001
100
AcDbArc
 50
8.000000012818244
 51
92.18693564984631
  0
SPLINE
  5
1294
330
1F
100
AcDbEntity
  8
SANINDUSA
100
AcDbSpline
210
0.0
220
0.0
230
1.0
 70
     8
 71
     3
 72
    10
 73
     6
 74
     0
 42
0.0000000001
 43
0.0000000001
 40
0.0
 40
0.0
 40
0.0
 40
0.0
 40
0.5
 40
0.5
 40
1.0
 40
1.0
 40
1.0
 40
1.0
 10
4150.496525161528
 20
2397.326746780167
 30
0.0
 10
4150.502212873713
 20
2397.327026272409
 30
0.0
 10
4150.507901024528
 20
2397.327296162478
 30
0.0
 10
4150.51927899888
 20
2397.32779932442
 30
0.0
 10
4150.524968789216
 20
2397.328033323148
 30
0.0
 10
4150.530659341916
 20
2397.328250632693
 30
0.0
  0
LINE
  5
1295
330
1F
100
AcDbEntity
  8
SANINDUSA
100
AcDbLine
 10
4150.543734478904
 20
2397.299791655479
 30
0.0
 11
4150.549678283883
 21
2397.299791655479
 31
0.0
  0
ARC
  5
1296
330
1F
100
AcDbEntity
  8
SANINDUSA
100
AcDbCircle
 10
4150.497015965909
 20
2397.316758831877
 30
0.0
 40
0.0100000000000004
100
AcDbArc
 50
92.81323217190877
 51
175.0000000037089
  0
LINE
  5
1297
330
1F
100
AcDbEntity
  8
SANINDUSA
100
AcDbLine
 10
4150.484603974176
 20
2397.289626239775
 30
0.0
 11
4150.487054019374
 21
2397.317630386887
 31
0.0
  0
LINE
  5
1298
330
1F
100
AcDbEntity
  8
SANINDUSA
100
AcDbLine
 10
4150.473178285313
 20
2397.289626239775
 30
0.0
 11
4150.484603974176
 21
2397.289626239775
 31
0.0
  0
LINE
  5
1299
330
1F
100
AcDbEntity
  8
SANINDUSA
100
AcDbLine
 10
4150.473178285313
 20
2397.323480284748
 30
0.0
 11
4150.473178285313
 21
2397.289626239775
 31
0.0
  0
LINE
  5
129A
330
1F
100
AcDbEntity
  8
SANINDUSA
100
AcDbLine
 10
4150.473178285313
 20
2397.323480284748
 30
0.0
 11
4150.486744116199
 21
2397.335272884904
 31
0.0
  0
SPLINE
  5
129B
330
1F
100
AcDbEntity
  8
SANINDUSA
100
AcDbSpline
210
0.0
220
0.0
230
1.0
 70
     8
 71
     3
 72
    12
 73
     8
 74
     0
 42
0.0000000001
 43
0.0000000001
 40
0.0
 40
0.0
 40
0.0
 40
0.0
 40
0.2500000000000002
 40
0.2500000000000002
 40
0.5000000000000004
 40
0.5000000000000004
 40
1.0
 40
1.0
 40
1.0
 40
1.0
 10
4150.486744114693
 20
2397.33527288255
 30
0.0
 10
4150.491178494424
 20
2397.335492884456
 30
0.0
 10
4150.495612876505
 20
2397.33571492581
 30
0.0
 10
4150.504481622714
 20
2397.336143422147
 30
0.0
 10
4150.508915987084
 20
2397.336350085455
 30
0.0
 10
4150.522219042835
 20
2397.336937637534
 30
0.0
 10
4150.531087697168
 20
2397.337286358348
 30
0.0
 10
4150.5399563074
 20
2397.33759678675
 30
0.0
  0
SPLINE
  5
129C
330
1F
100
AcDbEntity
  8
SANINDUSA
100
AcDbSpline
210
0.0
220
0.0
230
1.0
 70
     8
 71
     3
 72
     8
 73
     4
 74
     0
 42
0.0000000001
 43
0.0000000001
 40
0.0481370973851503
 40
0.0481370973851503
 40
0.0481370973851503
 40
0.0481370973851503
 40
1.0
 40
1.0
 40
1.0
 40
1.0
 10
4150.550563857479
 20
2397.341087648527
 30
0.0
 10
4150.582597278988
 20
2397.363043761783
 30
0.0
 10
4150.611273164228
 20
2397.389555780836
 30
0.0
 10
4150.635678284419
 20
2397.419791652797
 30
0.0
  0
SPLINE
  5
129D
330
1F
100
AcDbEntity
  8
SANINDUSA
100
AcDbSpline
210
0.0
220
0.0
230
1.0
 70
     8
 71
     3
 72
     8
 73
     4
 74
     0
 42
0.0000000001
 43
0.0000000001
 40
0.0260023114784218
 40
0.0260023114784218
 40
0.0260023114784218
 40
0.0260023114784218
 40
1.0
 40
1.0
 40
1.0
 40
1.0
 10
4150.639837179404
 20
2397.416099040552
 30
0.0
 10
4150.628928221623
 20
2397.370124199125
 30
0.0
 10
4150.602815236126
 20
2397.329125703739
 30
0.0
 10
4150.565678284419
 20
2397.299791652797
 30
0.0
  0
LINE
  5
129E
330
1F
100
AcDbEntity
  8
SANINDUSA
100
AcDbLine
 10
4150.549678283883
 20
2397.302779852389
 30
0.0
 11
4150.559678281797
 21
2397.30291948372
 31
0.0
  0
LINE
  5
129F
330
1F
100
AcDbEntity
  8
SANINDUSA
100
AcDbLine
 10
4150.559678281797
 20
2397.299791655479
 30
0.0
 11
4150.565678286505
 21
2397.299791655479
 31
0.0
  0
LINE
  5
12A0
330
1F
100
AcDbEntity
  8
SANINDUSA
100
AcDbLine
 10
4150.552002686215
 20
2397.312813281057
 30
0.0
 11
4150.567491499127
 21
2397.312985121855
 31
0.0
  0
LINE
  5
12A1
330
1F
100
AcDbEntity
  8
SANINDUSA
100
AcDbLine
 10
4150.635678286803
 20
2397.419791652797
 30
0.0
 11
4150.636918227327
 21
2397.419791652797
 31
0.0
  0
SPLINE
  5
12A2
330
1F
100
AcDbEntity
  8
SANINDUSA
100
AcDbSpline
210
0.0
220
0.0
230
1.0
 70
     8
 71
     3
 72
     8
 73
     4
 74
     0
 42
0.0000000001
 43
0.0000000001
 40
0.0
 40
0.0
 40
0.0
 40
0.0
 40
1.0
 40
1.0
 40
1.0
 40
1.0
 10
4150.555652089649
 20
2397.333664044726
 30
0.0
 10
4150.579983797171
 20
2397.350341305566
 30
0.0
 10
4150.602420916622
 20
2397.369589183055
 30
0.0
 10
4150.622580801726
 20
2397.391059027771
 30
0.0
  0
LINE
  5
12A3
330
1F
100
AcDbEntity
  8
SANINDUSA
100
AcDbLine
 10
4150.414613860799
 20
2397.335271663008
 30
0.0
 11
4150.428178283525
 21
2397.323480284748
 31
0.0
  0
SPLINE
  5
12A4
330
1F
100
AcDbEntity
  8
SANINDUSA
100
AcDbSpline
210
0.0
220
0.0
230
1.0
 70
     8
 71
     3
 72
    68
 73
    64
 74
     0
 42
0.0000000001
 43
0.0000000001
 40
0.0
 40
0.0
 40
0.0
 40
0.0
 40
0.0624999999999998
 40
0.0624999999999998
 40
0.0937499999999997
 40
0.0937499999999997
 40
0.1249999999999995
 40
0.1249999999999995
 40
0.1874999999999992
 40
0.1874999999999992
 40
0.2031249999999992
 40
0.2031249999999992
 40
0.2187499999999991
 40
0.2187499999999991
 40
0.249999999999999
 40
0.249999999999999
 40
0.2812499999999989
 40
0.2812499999999989
 40
0.2968749999999989
 40
0.2968749999999989
 40
0.3124999999999989
 40
0.3124999999999989
 40
0.374999999999999
 40
0.374999999999999
 40
0.4062499999999991
 40
0.4062499999999991
 40
0.4218749999999992
 40
0.4218749999999992
 40
0.4374999999999992
 40
0.4374999999999992
 40
0.4999999999999995
 40
0.4999999999999995
 40
0.5156249999999995
 40
0.5156249999999995
 40
0.5312499999999996
 40
0.5312499999999996
 40
0.5624999999999997
 40
0.5624999999999997
 40
0.625
 40
0.625
 40
0.640625
 40
0.640625
 40
0.65625
 40
0.65625
 40
0.6874999999999999
 40
0.6874999999999999
 40
0.7187499999999997
 40
0.7187499999999997
 40
0.7343749999999996
 40
0.7343749999999996
 40
0.7499999999999996
 40
0.7499999999999996
 40
0.8124999999999996
 40
0.8124999999999996
 40
0.8437499999999998
 40
0.8437499999999998
 40
0.8749999999999998
 40
0.8749999999999998
 40
0.9375
 40
0.9375
 40
0.96875
 40
0.96875
 40
1.0
 40
1.0
 40
1.0
 40
1.0
 10
4150.414613859861
 20
2397.335271660579
 30
0.0
 10
4150.414613859861
 20
2397.335271660579
 30
0.0
 10
4150.414847413445
 20
2397.335271638869
 30
0.0
 10
4150.415538531121
 20
2397.335271654536
 30
0.0
 10
4150.415826726109
 20
2397.335271669761
 30
0.0
 10
4150.416518434121
 20
2397.335271725872
 30
0.0
 10
4150.416917620499
 20
2397.335271767603
 30
0.0
 10
4150.418269944842
 20
2397.335271872096
 30
0.0
 10
4150.419376314812
 20
2397.335271985704
 30
0.0
 10
4150.421021415994
 20
2397.335271228523
 30
0.0
 10
4150.421364615909
 20
2397.335271025768
 30
0.0
 10
4150.422073274794
 20
2397.335270473416
 30
0.0
 10
4150.422438053305
 20
2397.335270122962
 30
0.0
 10
4150.423563173728
 20
2397.335268786468
 30
0.0
 10
4150.424354216847
 20
2397.335267527939
 30
0.0
 10
4150.426016797063
 20
2397.335264314989
 30
0.0
 10
4150.426888335681
 20
2397.335262360231
 30
0.0
 10
4150.428256665185
 20
2397.335258982093
 30
0.0
 10
4150.428722962971
 20
2397.335257782228
 30
0.0
 10
4150.429676264279
 20
2397.335255254864
 30
0.0
 10
4150.430164666666
 20
2397.335253923395
 30
0.0
 10
4150.432636847851
 20
2397.335247075975
 30
0.0
 10
4150.434714347468
 20
2397.335240994963
 30
0.0
 10
4150.437975015736
 20
2397.335232564845
 30
0.0
 10
4150.43908615189
 20
2397.335229867701
 30
0.0
 10
4150.440790175743
 20
2397.335226187999
 30
0.0
 10
4150.441365405519
 20
2397.335225021113
 30
0.0
 10
4150.442516151996
 20
2397.335222865137
 30
0.0
 10
4150.443093022036
 20
2397.335221872886
 30
0.0
 10
4150.445984721062
 20
2397.335217400319
 30
0.0
 10
4150.448321380395
 20
2397.335215457547
 30
0.0
 10
4150.451271368631
 20
2397.33521549838
 30
0.0
 10
4150.451862838143
 20
2397.335215624397
 30
0.0
 10
4150.453048775596
 20
2397.335216122906
 30
0.0
 10
4150.453643232357
 20
2397.335216496168
 30
0.0
 10
4150.455411476045
 20
2397.335217962545
 30
0.0
 10
4150.45657678037
 20
2397.335219405944
 30
0.0
 10
4150.460033083715
 20
2397.335224864467
 30
0.0
 10
4150.462284858262
 20
2397.33523001076
 30
0.0
 10
4150.465031411377
 20
2397.335237168342
 30
0.0
 10
4150.465576481372
 20
2397.3352386335
 30
0.0
 10
4150.466647711573
 20
2397.335241569227
 30
0.0
 10
4150.467175355813
 20
2397.335243043634
 30
0.0
 10
4150.468734727067
 20
2397.335247436759
 30
0.0
 10
4150.469742948124
 20
2397.335250325212
 30
0.0
 10
4150.471697155317
 20
2397.335255761408
 30
0.0
 10
4150.472643141513
 20
2397.335258306532
 30
0.0
 10
4150.474014475468
 20
2397.335261711379
 30
0.0
 10
4150.47446363206
 20
2397.335262778116
 30
0.0
 10
4150.475345695997
 20
2397.335264755925
 30
0.0
 10
4150.475777070515
 20
2397.335265663229
 30
0.0
 10
4150.477870604486
 20
2397.335269737692
 30
0.0
 10
4150.479359899464
 20
2397.335271369816
 30
0.0
 10
4150.481321265975
 20
2397.335272372185
 30
0.0
 10
4150.481929349259
 20
2397.335272518312
 30
0.0
 10
4150.483051073794
 20
2397.335272678813
 30
0.0
 10
4150.483555802514
 20
2397.335272691628
 30
0.0
 10
4150.484905196806
 20
2397.335272715598
 30
0.0
 10
4150.485587740257
 20
2397.335272727911
 30
0.0
 10
4150.486280826775
 20
2397.335272801889
 30
0.0
 10
4150.486456062374
 20
2397.335272829778
 30
0.0
 10
4150.486686937031
 20
2397.335272870254
 30
0.0
 10
4150.486744114693
 20
2397.33527288255
 30
0.0
 10
4150.486744114693
 20
2397.33527288255
 30
0.0
  0
LINE
  5
12A5
330
1F
100
AcDbEntity
  8
SANINDUSA
100
AcDbLine
 10
4150.473178285313
 20
2397.323480284748
 30
0.0
 11
4150.428178283525
 21
2397.323480284748
 31
0.0
  0
LINE
  5
12A6
330
1F
100
AcDbEntity
  8
SANINDUSA
100
AcDbLine
 10
4150.415863237483
 20
2397.299791655479
 30
0.0
 11
4150.416752594662
 21
2397.289626239775
 31
0.0
  0
SPLINE
  5
12A7
330
1F
100
AcDbEntity
  8
SANINDUSA
100
AcDbSpline
210
0.0
220
0.0
230
1.0
 70
     8
 71
     3
 72
     8
 73
     4
 74
     0
 42
0.0000000001
 43
0.0000000001
 40
0.0481174293245003
 40
0.0481174293245003
 40
0.0481174293245003
 40
0.0481174293245003
 40
0.5365028756729204
 40
0.5365028756729204
 40
0.5365028756729204
 40
0.5365028756729204
 10
4150.350794697053
 20
2397.341086287515
 30
0.0
 10
4150.33435879585
 20
2397.352351517195
 30
0.0
 10
4150.318806777884
 20
2397.364816116372
 30
0.0
 10
4150.30426199468
 20
2397.378367698101
 30
0.0
  0
SPLINE
  5
12A8
330
1F
100
AcDbEntity
  8
SANINDUSA
100
AcDbSpline
210
0.0
220
0.0
230
1.0
 70
     8
 71
     3
 72
    12
 73
     8
 74
     0
 42
0.0000000001
 43
0.0000000001
 40
0.0
 40
0.0
 40
0.0
 40
0.0
 40
0.5000000000000005
 40
0.5000000000000005
 40
0.7500000000000002
 40
0.7500000000000002
 40
1.0
 40
1.0
 40
1.0
 40
1.0
 10
4150.361398458186
 20
2397.337595623282
 30
0.0
 10
4150.370267778447
 20
2397.337283530767
 30
0.0
 10
4150.37913705592
 20
2397.336934288196
 30
0.0
 10
4150.392440899096
 20
2397.336347009808
 30
0.0
 10
4150.396875501236
 20
2397.336140611213
 30
0.0
 10
4150.405744688256
 20
2397.335712827163
 30
0.0
 10
4150.410179272895
 20
2397.335491233968
 30
0.0
 10
4150.414613859861
 20
2397.335271660579
 30
0.0
  0
LINE
  5
12A9
330
1F
100
AcDbEntity
  8
SANINDUSA
100
AcDbLine
 10
4150.428178283525
 20
2397.318791649281
 30
0.0
 11
4150.428178283525
 21
2397.323480284748
 31
0.0
  0
LINE
  5
12AA
330
1F
100
AcDbEntity
  8
SANINDUSA
100
AcDbLine
 10
4150.414200953347
 20
2397.318791649281
 30
0.0
 11
4150.428178283525
 21
2397.318791649281
 31
0.0
  0
ARC
  5
12AB
330
1F
100
AcDbEntity
  8
SANINDUSA
100
AcDbCircle
 10
4150.404410897214
 20
2397.31675331594
 30
0.0
 40
0.01
100
AcDbArc
 50
11.76123263976383
 51
87.19141565818311
  0
SPLINE
  5
12AC
330
1F
100
AcDbEntity
  8
SANINDUSA
100
AcDbSpline
210
0.0
220
0.0
230
1.0
 70
     8
 71
     3
 72
    10
 73
     6
 74
     0
 42
0.0000000001
 43
0.0000000001
 40
0.0
 40
0.0
 40
0.0
 40
0.0
 40
0.5
 40
0.5
 40
1.0
 40
1.0
 40
1.0
 40
1.0
 10
4150.361081963208
 20
2397.328601189952
 30
0.0
 10
4150.368387380235
 20
2397.328344127865
 30
0.0
 10
4150.375691726305
 20
2397.328062014696
 30
0.0
 10
4150.390297989062
 20
2397.32744096201
 30
0.0
 10
4150.39759979721
 20
2397.327099483599
 30
0.0
 10
4150.404900891367
 20
2397.326741304012
 30
0.0
  0
LINE
  5
12AD
330
1F
100
AcDbEntity
  8
SANINDUSA
100
AcDbLine
 10
4150.298432941688
 20
2397.371497961668
 30
0.0
 11
4150.304261992824
 21
2397.378367698728
 31
0.0
  0
SPLINE
  5
12AE
330
1F
100
AcDbEntity
  8
SANINDUSA
100
AcDbSpline
210
0.0
220
0.0
230
1.0
 70
     8
 71
     3
 72
    12
 73
     8
 74
     0
 42
0.0000000001
 43
0.0000000001
 40
0.0
 40
0.0
 40
0.0
 40
0.0
 40
0.5000000000000008
 40
0.5000000000000008
 40
0.7500000000000004
 40
0.7500000000000004
 40
1.0
 40
1.0
 40
1.0
 40
1.0
 10
4150.345706509564
 20
2397.333662653089
 30
0.0
 10
4150.337366745627
 20
2397.339378759258
 30
0.0
 10
4150.329250773864
 20
2397.345395402775
 30
0.0
 10
4150.317412318349
 20
2397.354870924105
 30
0.0
 10
4150.313525743526
 20
2397.358101847689
 30
0.0
 10
4150.305883878973
 20
2397.364697384695
 30
0.0
 10
4150.302126636763
 20
2397.368063549165
 30
0.0
 10
4150.298432948255
 20
2397.371497963162
 30
0.0
  0
LINE
  5
12AF
330
1F
100
AcDbEntity
  8
SANINDUSA
100
AcDbLine
 10
4150.288542400253
 20
2397.393845275952
 30
0.0
 11
4150.282689998997
 21
2397.386948007135
 31
0.0
  0
SPLINE
  5
12B0
330
1F
100
AcDbEntity
  8
SANINDUSA
100
AcDbSpline
210
0.0
220
0.0
230
1.0
 70
     8
 71
     3
 72
    51
 73
    47
 74
     0
 42
0.0000000001
 43
0.0000000001
 40
0.0
 40
0.0
 40
0.0
 40
0.0
 40
0.0624999999999984
 40
0.0624999999999984
 40
0.0937499999999977
 40
0.0937499999999977
 40
0.1249999999999969
 40
0.1249999999999969
 40
0.1874999999999956
 40
0.1874999999999956
 40
0.2187499999999955
 40
0.2187499999999955
 40
0.2499999999999953
 40
0.2499999999999953
 40
0.3124999999999935
 40
0.3124999999999935
 40
0.3437499999999927
 40
0.3437499999999927
 40
0.3749999999999918
 40
0.4062499999999911
 40
0.4062499999999911
 40
0.4374999999999903
 40
0.4374999999999903
 40
0.4999999999999907
 40
0.4999999999999907
 40
0.531249999999992
 40
0.531249999999992
 40
0.5624999999999933
 40
0.5624999999999933
 40
0.6249999999999942
 40
0.6249999999999942
 40
0.6562499999999947
 40
0.6562499999999947
 40
0.6874999999999952
 40
0.6874999999999952
 40
0.7499999999999964
 40
0.7499999999999964
 40
0.8124999999999976
 40
0.8124999999999976
 40
0.8437499999999982
 40
0.8437499999999982
 40
0.8749999999999989
 40
0.8749999999999989
 40
0.9374999999999994
 40
0.9374999999999994
 40
1.0
 40
1.0
 40
1.0
 40
1.0
 10
4150.30426199468
 20
2397.378367698101
 30
0.0
 10
4150.30426199468
 20
2397.378367698101
 30
0.0
 10
4150.304212197242
 20
2397.378419523363
 30
0.0
 10
4150.304065767503
 20
2397.378571614841
 30
0.0
 10
4150.304004910572
 20
2397.378634794215
 30
0.0
 10
4150.3038585061
 20
2397.378786622093
 30
0.0
 10
4150.303772574821
 20
2397.378875666707
 30
0.0
 10
4150.303482981335
 20
2397.379175353703
 30
0.0
 10
4150.30324655458
 20
2397.379419567289
 30
0.0
 10
4150.30282698834
 20
2397.379851305236
 30
0.0
 10
4150.302675567124
 20
2397.380006881619
 30
0.0
 10
4150.302353052672
 20
2397.380337588694
 30
0.0
 10
4150.3021832317
 20
2397.380511416189
 30
0.0
 10
4150.301648729308
 20
2397.381057374279
 30
0.0
 10
4150.30125924563
 20
2397.381453747795
 30
0.0
 10
4150.300623525185
 20
2397.382097495276
 30
0.0
 10
4150.300403377221
 20
2397.382319920664
 30
0.0
 10
4150.299955290744
 20
2397.38277152826
 30
0.0
 10
4150.299497154043
 20
2397.383232183518
 30
0.0
 10
4150.299019071268
 20
2397.383710542289
 30
0.0
 10
4150.29853081933
 20
2397.384197828967
 30
0.0
 10
4150.29828021225
 20
2397.384447321459
 30
0.0
 10
4150.297523924581
 20
2397.385198304123
 30
0.0
 10
4150.297015655261
 20
2397.385700468472
 30
0.0
 10
4150.296247242749
 20
2397.386455883284
 30
0.0
 10
4150.295990098938
 20
2397.38670805449
 30
0.0
 10
4150.295473755529
 20
2397.38721317333
 30
0.0
 10
4150.29521637683
 20
2397.38746433431
 30
0.0
 10
4150.294457185572
 20
2397.388203462478
 30
0.0
 10
4150.293963859746
 20
2397.388681439793
 30
0.0
 10
4150.293243562777
 20
2397.389376425994
 30
0.0
 10
4150.293005516809
 20
2397.389605602291
 30
0.0
 10
4150.292544885458
 20
2397.390048189418
 30
0.0
 10
4150.292321854704
 20
2397.390262036138
 30
0.0
 10
4150.291674224185
 20
2397.390881879684
 30
0.0
 10
4150.29127087277
 20
2397.391266387989
 30
0.0
 10
4150.290523943167
 20
2397.391976366975
 30
0.0
 10
4150.290191520055
 20
2397.392291242524
 30
0.0
 10
4150.289755543204
 20
2397.392703356464
 30
0.0
 10
4150.289620549
 20
2397.392830796976
 30
0.0
 10
4150.289371734992
 20
2397.393065467213
 30
0.0
 10
4150.289257582477
 20
2397.393173009298
 30
0.0
 10
4150.288954518575
 20
2397.393458310132
 30
0.0
 10
4150.288802122116
 20
2397.393601474611
 30
0.0
 10
4150.28859576505
 20
2397.393795239062
 30
0.0
 10
4150.288542403813
 20
2397.393845275373
 30
0.0
 10
4150.288542403813
 20
2397.393845275373
 30
0.0
  0
SPLINE
  5
12B1
330
1F
100
AcDbEntity
  8
SANINDUSA
100
AcDbSpline
210
0.0
220
0.0
230
1.0
 70
     8
 71
     3
 72
    51
 73
    47
 74
     0
 42
0.0000000001
 43
0.0000000001
 40
0.0
 40
0.0
 40
0.0
 40
0.0
 40
0.0624999999999995
 40
0.0624999999999995
 40
0.0937499999999992
 40
0.0937499999999992
 40
0.124999999999999
 40
0.124999999999999
 40
0.1874999999999983
 40
0.1874999999999983
 40
0.218749999999998
 40
0.218749999999998
 40
0.2499999999999977
 40
0.2499999999999977
 40
0.3124999999999974
 40
0.3124999999999974
 40
0.3437499999999973
 40
0.3437499999999973
 40
0.3749999999999972
 40
0.4062499999999972
 40
0.4062499999999972
 40
0.437499999999997
 40
0.437499999999997
 40
0.4999999999999952
 40
0.4999999999999952
 40
0.5312499999999936
 40
0.5312499999999936
 40
0.562499999999992
 40
0.562499999999992
 40
0.6249999999999908
 40
0.6249999999999908
 40
0.6562499999999911
 40
0.6562499999999911
 40
0.6874999999999912
 40
0.6874999999999912
 40
0.749999999999993
 40
0.749999999999993
 40
0.8124999999999946
 40
0.8124999999999946
 40
0.8437499999999953
 40
0.8437499999999953
 40
0.8749999999999962
 40
0.8749999999999962
 40
0.937499999999998
 40
0.937499999999998
 40
1.0
 40
1.0
 40
1.0
 40
1.0
 10
4150.298432948255
 20
2397.371497963162
 30
0.0
 10
4150.298432948255
 20
2397.371497963162
 30
0.0
 10
4150.298383001015
 20
2397.371549597285
 30
0.0
 10
4150.298236138242
 20
2397.371701141907
 30
0.0
 10
4150.298175102146
 20
2397.371764095461
 30
0.0
 10
4150.298028271314
 20
2397.371915387132
 30
0.0
 10
4150.297942089945
 20
2397.372004121919
 30
0.0
 10
4150.297651659708
 20
2397.372302786799
 30
0.0
 10
4150.297414560567
 20
2397.37254618716
 30
0.0
 10
4150.296993846264
 20
2397.372976549188
 30
0.0
 10
4150.296842022809
 20
2397.373131632992
 30
0.0
 10
4150.296518637206
 20
2397.373461350192
 30
0.0
 10
4150.296348366398
 20
2397.373634668227
 30
0.0
 10
4150.295812482763
 20
2397.374179064818
 30
0.0
 10
4150.295422036271
 20
2397.374574353642
 30
0.0
 10
4150.294784844157
 20
2397.375216439695
 30
0.0
 10
4150.294564182082
 20
2397.375438326895
 30
0.0
 10
4150.294115092936
 20
2397.375888866495
 30
0.0
 10
4150.293655967035
 20
2397.376348463011
 30
0.0
 10
4150.293176930428
 20
2397.376825787306
 30
0.0
 10
4150.292687746037
 20
2397.377312053857
 30
0.0
 10
4150.292436683022
 20
2397.377561038849
 30
0.0
 10
4150.291679034109
 20
2397.378310594728
 30
0.0
 10
4150.291169937526
 20
2397.378811869458
 30
0.0
 10
4150.29040040215
 20
2397.379566039089
 30
0.0
 10
4150.290142903726
 20
2397.379817810088
 30
0.0
 10
4150.28962589015
 20
2397.380322157448
 30
0.0
 10
4150.289368186037
 20
2397.380572962085
 30
0.0
 10
4150.288608104125
 20
2397.381311071792
 30
0.0
 10
4150.288114276083
 20
2397.381788446995
 30
0.0
 10
4150.287393340077
 20
2397.38248262699
 30
0.0
 10
4150.287155099005
 20
2397.382711549866
 30
0.0
 10
4150.286694112121
 20
2397.383153674587
 30
0.0
 10
4150.286470923179
 20
2397.383367308946
 30
0.0
 10
4150.285822867909
 20
2397.383986564327
 30
0.0
 10
4150.285419299438
 20
2397.384370745424
 30
0.0
 10
4150.284672031219
 20
2397.385080168987
 30
0.0
 10
4150.284339482646
 20
2397.385394832682
 30
0.0
 10
4150.28390337166
 20
2397.38580668502
 30
0.0
 10
4150.28376834088
 20
2397.385934048607
 30
0.0
 10
4150.283519466208
 20
2397.386168582416
 30
0.0
 10
4150.283405288443
 20
2397.386276065913
 30
0.0
 10
4150.283102161653
 20
2397.386561218609
 30
0.0
 10
4150.282949743249
 20
2397.386704315437
 30
0.0
 10
4150.282743360111
 20
2397.386897990019
 30
0.0
 10
4150.282689993694
 20
2397.386948005507
 30
0.0
 10
4150.282689993694
 20
2397.386948005507
 30
0.0
  0
LINE
  5
12B2
330
1F
100
AcDbEntity
  8
SANINDUSA
100
AcDbLine
 10
4150.337592102487
 20
2397.30981935133
 30
0.0
 11
4150.428178283525
 21
2397.308791651366
 31
0.0
  0
LINE
  5
12B3
330
1F
100
AcDbEntity
  8
SANINDUSA
100
AcDbLine
 10
4150.428178283525
 20
2397.289626239775
 30
0.0
 11
4150.428178283525
 21
2397.308791651366
 31
0.0
  0
LINE
  5
12B4
330
1F
100
AcDbEntity
  8
SANINDUSA
100
AcDbLine
 10
4150.416752594662
 20
2397.289626239775
 30
0.0
 11
4150.428178283525
 21
2397.289626239775
 31
0.0
  0
LINE
  5
12B5
330
1F
100
AcDbEntity
  8
SANINDUSA
100
AcDbLine
 10
4150.335678284418
 20
2397.299791652797
 30
0.0
 11
4150.415863237483
 21
2397.299791655479
 31
0.0
  0
SPLINE
  5
12B6
330
1F
100
AcDbEntity
  8
SANINDUSA
100
AcDbSpline
210
0.0
220
0.0
230
1.0
 70
     8
 71
     3
 72
     8
 73
     4
 74
     0
 42
0.0000000001
 43
0.0000000001
 40
0.0260023114784218
 40
0.0260023114784218
 40
0.0260023114784218
 40
0.0260023114784218
 40
1.0
 40
1.0
 40
1.0
 40
1.0
 10
4150.335678284418
 20
2397.299791652797
 30
0.0
 10
4150.29854133271
 20
2397.329125703739
 30
0.0
 10
4150.272428347214
 20
2397.370124199125
 30
0.0
 10
4150.261519389433
 20
2397.416099040552
 30
0.0
  0
SPLINE
  5
12B7
330
1F
100
AcDbEntity
  8
SANINDUSA
100
AcDbSpline
210
0.0
220
0.0
230
1.0
 70
     8
 71
     3
 72
     8
 73
     4
 74
     0
 42
0.0000000001
 43
0.0000000001
 40
0.7171440818624994
 40
0.7171440818624994
 40
0.7171440818624994
 40
0.7171440818624994
 40
1.0
 40
1.0
 40
1.0
 40
1.0
 10
4150.288542403813
 20
2397.393845275373
 30
0.0
 10
4150.280559879601
 20
2397.402150680038
 30
0.0
 10
4150.2729305186
 20
2397.410806750349
 30
0.0
 10
4150.265678284418
 20
2397.419791652797
 30
0.0
  0
LINE
  5
12BA
330
1F
100
AcDbEntity
  8
SANINDUSA
100
AcDbLine
 10
4150.264438341511
 20
2397.419791652797
 30
0.0
 11
4150.265678282035
 21
2397.419791652797
 31
0.0
  0
SPLINE
  5
12BB
330
1F
100
AcDbEntity
  8
SANINDUSA
100
AcDbSpline
210
0.0
220
0.0
230
1.0
 70
    24
 71
     3
 72
     8
 73
     4
 74
     0
 42
0.0000000001
 43
0.0000000001
 40
0.0
 40
0.0
 40
0.0
 40
0.0
 40
1.0
 40
1.0
 40
1.0
 40
1.0
 10
4150.282689993694
 20
2397.386948005507
 30
0.0
 10
4150.28137629089
 20
2397.388308723576
 30
0.0
 10
4150.280071541159
 20
2397.389679056236
 30
0.0
 10
4150.278775767111
 20
2397.391059027771
 30
0.0
  0
LINE
  5
12BC
330
1F
100
AcDbEntity
  8
SANINDUSA
100
AcDbLine
 10
4150.473178285313
 20
2397.289626239775
 30
0.0
 11
4150.428178283525
 21
2397.289626239775
 31
0.0
  0
LINE
  5
12BD
330
1F
100
AcDbEntity
  8
SANINDUSA
100
AcDbLine
 10
4150.433157772896
 20
2397.308791651366
 30
0.0
 11
4150.428178283525
 21
2397.308791651366
 31
0.0
  0
ELLIPSE
  5
12BE
330
1F
100
AcDbEntity
  8
SANINDUSA
100
AcDbEllipse
 10
4150.450678284419
 20
2396.887278224337
 30
0.0
 11
-0.0007861962409348
 21
0.6443156982813889
 31
0.0
210
0.0
220
0.0
230
0.9999999999999998
 40
0.0348994448041286
 41
0.836917219858795
 42
0.8576250517009242
  0
LINE
  5
12BF
330
1F
100
AcDbEntity
  8
SANINDUSA
100
AcDbLine
 10
4150.428178283525
 20
2397.318791649281
 30
0.0
 11
4150.433453834755
 21
2397.318791649281
 31
0.0
  0
SPLINE
  5
12C0
330
1F
100
AcDbEntity
  8
SANINDUSA
100
AcDbSpline
210
0.0
220
0.0
230
1.0
 70
    24
 71
     3
 72
    24
 73
    20
 74
     0
 42
0.0000000001
 43
0.0000000001
 40
0.0
 40
0.0
 40
0.0
 40
0.0
 40
0.03125
 40
0.0625
 40
0.09375
 40
0.125
 40
0.15625
 40
0.1875
 40
0.21875
 40
0.25
 40
0.25
 40
0.28125
 40
0.3125
 40
0.34375
 40
0.375
 40
0.40625
 40
0.4375
 40
0.46875
 40
0.5
 40
0.5
 40
0.5
 40
0.5
 10
4150.265678284418
 20
2397.419791652797
 30
0.0
 10
4150.265678284418
 20
2397.419791652797
 30
0.0
 10
4150.268062715133
 20
2397.419791652797
 30
0.0
 10
4150.27865858381
 20
2397.419791652797
 30
0.0
 10
4150.295864449211
 20
2397.419791652797
 30
0.0
 10
4150.319020030483
 20
2397.419791652797
 30
0.0
 10
4150.347235024069
 20
2397.419791652797
 30
0.0
 10
4150.379425314199
 20
2397.419791652797
 30
0.0
 10
4150.41435388177
 20
2397.419791652797
 30
0.0
 10
4150.438570062812
 20
2397.419791652797
 30
0.0
 10
4150.462786506025
 20
2397.419791652797
 30
0.0
 10
4150.487002687067
 20
2397.419791652797
 30
0.0
 10
4150.521931254638
 20
2397.419791652797
 30
0.0
 10
4150.554121544768
 20
2397.419791652797
 30
0.0
 10
4150.582336538354
 20
2397.419791652797
 30
0.0
 10
4150.605492119626
 20
2397.419791652797
 30
0.0
 10
4150.622697985027
 20
2397.419791652797
 30
0.0
 10
4150.633293853704
 20
2397.419791652797
 30
0.0
 10
4150.635678284419
 20
2397.419791652797
 30
0.0
 10
4150.635678284419
 20
2397.419791652797
 30
0.0
  0
LINE
  5
13D4
330
1F
100
AcDbEntity
  8
SANINDUSA
100
AcDbLine
 10
4149.409212011606
 20
2397.299791655479
 30
0.0
 11
4149.639212015778
 21
2397.299791655479
 31
0.0
  0
ENDSEC
  0
SECTION
  2
OBJECTS
  0
DICTIONARY
  5
C
330
0
100
AcDbDictionary
281
     1
  3
ACAD_2007HEADERVARS_RT
350
144F
  3
ACAD_CIP_PREVIOUS_PRODUCT_INFO
350
10B9
  3
ACAD_COLOR
350
EE6
  3
ACAD_DETAILVIEWSTYLE
350
10B1
  3
ACAD_GROUP
350
D
  3
ACAD_LAYOUT
350
1A
  3
ACAD_MATERIAL
350
EE5
  3
ACAD_MLEADERSTYLE
350
10AD
  3
ACAD_MLINESTYLE
350
17
  3
ACAD_PLOTSETTINGS
350
19
  3
ACAD_PLOTSTYLENAME
350
E
  3
ACAD_SCALELIST
350
109B
  3
ACAD_SECTIONVIEWSTYLE
350
10AF
  3
ACAD_TABLESTYLE
350
EE7
  3
ACAD_VISUALSTYLE
350
1082
  3
ACDB_RECOMPOSE_DATA
350
144D
  3
AcDbVariableDictionary
350
3D
  3
AEC_PROPERTY_SET_DEFS
350
123B
  3
ASE_INDEX_DICTIONARY
350
1066
  3
DWGPROPS
350
144E
  0
DICTIONARY
  5
13FB
330
8
100
AcDbDictionary
280
     1
281
     1
  0
DICTIONARY
  5
1051
330
2
100
AcDbDictionary
280
     1
281
     1
  3
ACAD_LAYERFILTERS
360
1065
  3
ACAD_LAYERSTATES
360
117A
  3
ACLYDICTIONARY
360
1064
  0
DICTIONARY
  5
13D5
330
10
100
AcDbDictionary
280
     1
281
     1
  3
ADSK_XREC_LAYER_RECONCILED
360
13D6
  0
DICTIONARY
  5
13D7
330
2F
100
AcDbDictionary
280
     1
281
     1
  3
ADSK_XREC_LAYER_RECONCILED
360
13D8
  0
DICTIONARY
  5
13D9
330
30
100
AcDbDictionary
280
     1
281
     1
  3
ADSK_XREC_LAYER_RECONCILED
360
13DA
  0
DICTIONARY
  5
13DB
330
31
100
AcDbDictionary
280
     1
281
     1
  3
ADSK_XREC_LAYER_RECONCILED
360
13DC
  0
DICTIONARY
  5
13DD
330
32
100
AcDbDictionary
280
     1
281
     1
  3
ADSK_XREC_LAYER_RECONCILED
360
13DE
  0
DICTIONARY
  5
13DF
330
33
100
AcDbDictionary
280
     1
281
     1
  3
ADSK_XREC_LAYER_RECONCILED
360
13E0
  0
DICTIONARY
  5
13E1
330
34
100
AcDbDictionary
280
     1
281
     1
  3
ADSK_XREC_LAYER_RECONCILED
360
13E2
  0
DICTIONARY
  5
13E3
330
35
100
AcDbDictionary
280
     1
281
     1
  3
ADSK_XREC_LAYER_RECONCILED
360
13E4
  0
DICTIONARY
  5
13E5
330
36
100
AcDbDictionary
280
     1
281
     1
  3
ADSK_XREC_LAYER_RECONCILED
360
13E6
  0
DICTIONARY
  5
13E7
330
37
100
AcDbDictionary
280
     1
281
     1
  3
ADSK_XREC_LAYER_RECONCILED
360
13E8
  0
DICTIONARY
  5
13E9
330
5D6
100
AcDbDictionary
280
     1
281
     1
  3
ADSK_XREC_LAYER_RECONCILED
360
13EA
  0
DICTIONARY
  5
13EB
330
8AF
100
AcDbDictionary
280
     1
281
     1
  3
ADSK_XREC_LAYER_RECONCILED
360
13EC
  0
DICTIONARY
  5
13ED
330
8F8
100
AcDbDictionary
280
     1
281
     1
  3
ADSK_XREC_LAYER_RECONCILED
360
13EE
  0
DICTIONARY
  5
13EF
330
91D
100
AcDbDictionary
280
     1
281
     1
  3
ADSK_XREC_LAYER_RECONCILED
360
13F0
  0
DICTIONARY
  5
13F1
330
C7B
100
AcDbDictionary
280
     1
281
     1
  3
ADSK_XREC_LAYER_RECONCILED
360
13F2
  0
DICTIONARY
  5
13F3
330
1060
100
AcDbDictionary
280
     1
281
     1
  3
ADSK_XREC_LAYER_RECONCILED
360
13F4
  0
DICTIONARY
  5
144F
102
{ACAD_REACTORS
330
C
102
}
330
C
100
AcDbDictionary
281
     1
  3
DIMJOGANG
350
1450
  0
XRECORD
  5
10B9
102
{ACAD_REACTORS
330
C
102
}
330
C
100
AcDbXrecord
280
     1
300
ACD
300
2013
300
ACD_F_S
  0
DICTIONARY
  5
EE6
102
{ACAD_REACTORS
330
C
102
}
330
C
100
AcDbDictionary
281
     1
  0
DICTIONARY
  5
10B1
102
{ACAD_REACTORS
330
C
102
}
330
C
100
AcDbDictionary
281
     1
  3
Metric50
350
10B2
  0
DICTIONARY
  5
D
102
{ACAD_REACTORS
330
C
102
}
330
C
100
AcDbDictionary
281
     1
  0
DICTIONARY
  5
1A
102
{ACAD_REACTORS
330
C
102
}
330
C
100
AcDbDictionary
281
     1
  3
Layout1
350
1E
  3
Layout2
350
26
  3
Model
350
22
  0
DICTIONARY
  5
EE5
102
{ACAD_REACTORS
330
C
102
}
330
C
100
AcDbDictionary
281
     1
  3
ByBlock
350
1072
  3
ByLayer
350
106A
  3
Global
350
107A
  0
DICTIONARY
  5
10AD
102
{ACAD_REACTORS
330
C
102
}
330
C
100
AcDbDictionary
281
     1
  3
Standard
350
10AE
  0
DICTIONARY
  5
17
102
{ACAD_REACTORS
330
C
102
}
330
C
100
AcDbDictionary
281
     1
  3
Standard
350
18
  0
DICTIONARY
  5
19
102
{ACAD_REACTORS
330
C
102
}
330
C
100
AcDbDictionary
281
     1
  0
ACDBDICTIONARYWDFLT
  5
E
102
{ACAD_REACTORS
330
C
102
}
330
C
100
AcDbDictionary
281
     1
  3
Normal
350
F
100
AcDbDictionaryWithDefault
340
F
  0
DICTIONARY
  5
109B
102
{ACAD_REACTORS
330
C
102
}
330
C
100
AcDbDictionary
281
     1
  3
A0
350
109C
  3
A1
350
109D
  3
A2
350
109E
  3
A3
350
109F
  3
A4
350
10A0
  3
A5
350
10A1
  3
A6
350
10A2
  3
A7
350
10A3
  3
A8
350
10A4
  3
A9
350
10A5
  3
B0
350
10A6
  3
B1
350
10A7
  3
B2
350
10A8
  3
B3
350
10A9
  3
B4
350
10AA
  3
B5
350
10AB
  3
B6
350
10AC
  0
DICTIONARY
  5
10AF
102
{ACAD_REACTORS
330
C
102
}
330
C
100
AcDbDictionary
281
     1
  3
Metric50
350
10B0
  0
DICTIONARY
  5
EE7
102
{ACAD_REACTORS
330
C
102
}
330
C
100
AcDbDictionary
281
     1
  3
Standard
350
EE8
  0
DICTIONARY
  5
1082
102
{ACAD_REACTORS
330
C
102
}
330
C
100
AcDbDictionary
281
     1
  3
2dWireframe
350
1088
  3
3dWireframe
350
1177
  3
Basic
350
1087
  3
Brighten
350
108E
  3
ColorChange
350
1092
  3
Conceptual
350
108B
  3
Dim
350
108D
  3
EdgeColorOff
350
109A
  3
Facepattern
350
1091
  3
Flat
350
1083
  3
FlatWithEdges
350
1084
  3
Gouraud
350
1085
  3
GouraudWithEdges
350
1086
  3
Hidden
350
108A
  3
JitterOff
350
1098
  3
Linepattern
350
1090
  3
OverhangOff
350
1099
  3
Realistic
350
108C
  3
Shaded
350
1097
  3
Shaded with edges
350
1096
  3
Shades of Gray
350
1093
  3
Sketchy
350
1094
  3
Thicken
350
108F
  3
Wireframe
350
1089
  3
X-Ray
350
1095
  0
XRECORD
  5
144D
102
{ACAD_REACTORS
330
C
102
}
330
C
100
AcDbXrecord
280
     1
 90
        1
330
EE8
  0
DICTIONARY
  5
3D
102
{ACAD_REACTORS
330
C
102
}
330
C
100
AcDbDictionary
281
     1
  3
CANNOSCALE
350
143E
  3
CMLEADERSTYLE
350
143B
  3
CTABLESTYLE
350
1049
  3
CVIEWDETAILSTYLE
350
143C
  3
CVIEWSECTIONSTYLE
350
143D
  3
DIMASSOC
350
3F
  3
HIDETEXT
350
3E
  3
INDEXCTL
350
1440
  3
SORTENTS
350
143F
  3
XCLIPFRAME
350
144B
  0
DICTIONARY
  5
123B
102
{ACAD_REACTORS
330
C
102
}
330
C
100
AcDbDictionary
281
     1
  0
DICTIONARY
  5
1066
102
{ACAD_REACTORS
330
C
102
}
330
C
100
AcDbDictionary
281
     1
  3
ASEBlockHierarchyIndexRecord
350
1067
1001
DCO15
1040
1602247867.484
  0
XRECORD
  5
144E
102
{ACAD_REACTORS
330
C
102
}
330
C
100
AcDbXrecord
280
     1
  1
DWGPROPS COOKIE
  2

  3

  4

  6

  7

  8
Julio
  9

300
=
301
=
302
=
303
=
304
=
305
=
306
=
307
=
308
=
309
=
 40
0.0137299305555556
 41
2457232.706362106
 42
2457232.73676684
  1

 90
        0
  0
DICTIONARY
  5
1065
102
{ACAD_REACTORS
330
1051
102
}
330
1051
100
AcDbDictionary
281
     1
  0
DICTIONARY
  5
117A
102
{ACAD_REACTORS
330
1051
102
}
330
1051
100
AcDbDictionary
281
     1
  0
DICTIONARY
  5
1064
102
{ACAD_REACTORS
330
1051
102
}
330
1051
100
AcDbDictionary
281
     1
1001
ACAD
1000
<All
  0
XRECORD
  5
13D6
102
{ACAD_REACTORS
330
13D5
102
}
330
13D5
100
AcDbXrecord
280
     1
290
     1
  0
XRECORD
  5
13D8
102
{ACAD_REACTORS
330
13D7
102
}
330
13D7
100
AcDbXrecord
280
     1
290
     1
  0
XRECORD
  5
13DA
102
{ACAD_REACTORS
330
13D9
102
}
330
13D9
100
AcDbXrecord
280
     1
290
     1
  0
XRECORD
  5
13DC
102
{ACAD_REACTORS
330
13DB
102
}
330
13DB
100
AcDbXrecord
280
     1
290
     1
  0
XRECORD
  5
13DE
102
{ACAD_REACTORS
330
13DD
102
}
330
13DD
100
AcDbXrecord
280
     1
290
     1
  0
XRECORD
  5
13E0
102
{ACAD_REACTORS
330
13DF
102
}
330
13DF
100
AcDbXrecord
280
     1
290
     1
  0
XRECORD
  5
13E2
102
{ACAD_REACTORS
330
13E1
102
}
330
13E1
100
AcDbXrecord
280
     1
290
     1
  0
XRECORD
  5
13E4
102
{ACAD_REACTORS
330
13E3
102
}
330
13E3
100
AcDbXrecord
280
     1
290
     1
  0
XRECORD
  5
13E6
102
{ACAD_REACTORS
330
13E5
102
}
330
13E5
100
AcDbXrecord
280
     1
290
     1
  0
XRECORD
  5
13E8
102
{ACAD_REACTORS
330
13E7
102
}
330
13E7
100
AcDbXrecord
280
     1
290
     1
  0
XRECORD
  5
13EA
102
{ACAD_REACTORS
330
13E9
102
}
330
13E9
100
AcDbXrecord
280
     1
290
     1
  0
XRECORD
  5
13EC
102
{ACAD_REACTORS
330
13EB
102
}
330
13EB
100
AcDbXrecord
280
     1
290
     1
  0
XRECORD
  5
13EE
102
{ACAD_REACTORS
330
13ED
102
}
330
13ED
100
AcDbXrecord
280
     1
290
     1
  0
XRECORD
  5
13F0
102
{ACAD_REACTORS
330
13EF
102
}
330
13EF
100
AcDbXrecord
280
     1
290
     1
  0
XRECORD
  5
13F2
102
{ACAD_REACTORS
330
13F1
102
}
330
13F1
100
AcDbXrecord
280
     1
290
     1
  0
XRECORD
  5
13F4
102
{ACAD_REACTORS
330
13F3
102
}
330
13F3
100
AcDbXrecord
280
     1
290
     1
  0
XRECORD
  5
1450
102
{ACAD_REACTORS
330
144F
102
}
330
144F
100
AcDbXrecord
280
     1
 40
1.570796326794896
  0
ACDBDETAILVIEWSTYLE
  5
10B2
102
{ACAD_REACTORS
330
10B1
102
}
330
10B1
100
AcDbModelDocViewStyle
 70
     0
  3
Metric50
290
     0
100
AcDbDetailViewStyle
 70
     0
 71
     0
 90
        3
 71
     1
340
11
 40
5.0
340
0
 40
5.0
300

 40
0.0
280
     1
 71
     2
340
16
 90
       25
 71
     3
340
11
 40
5.0
 90
        0
 40
15.0
 90
        1
300
%<\AcVar ViewDetailId>% (%<\AcVar ViewScale \f "%sn">%)
 71
     4
340
16
 90
       25
340
16
 90
       25
280
     0
  0
LAYOUT
  5
1E
102
{ACAD_XDICTIONARY
360
1451
102
}
102
{ACAD_REACTORS
330
1A
102
}
330
1A
100
AcDbPlotSettings
  1

  2
Ploter HP500
  4

  6

 40
0.0
 41
0.0
 42
0.0
 43
0.0
 44
0.0
 45
0.0
 46
0.0
 47
0.0
 48
0.0
 49
0.0
140
0.0
141
0.0
142
1.0
143
1.0
 70
   688
 72
     0
 73
     0
 74
     5
  7
sanindusa.ctb
 75
    16
147
1.0
148
0.0
149
0.0
100
AcDbLayout
  1
Layout1
 70
     1
 71
     1
 10
0.0
 20
0.0
 11
420.0
 21
297.0
 12
0.0
 22
0.0
 32
0.0
 14
1.000000000000000E+20
 24
1.000000000000000E+20
 34
1.000000000000000E+20
 15
-1.000000000000000E+20
 25
-1.000000000000000E+20
 35
-1.000000000000000E+20
146
0.0
 13
0.0
 23
0.0
 33
0.0
 16
1.0
 26
0.0
 36
0.0
 17
0.0
 27
1.0
 37
0.0
 76
     0
330
1B
  0
LAYOUT
  5
26
102
{ACAD_XDICTIONARY
360
1455
102
}
102
{ACAD_REACTORS
330
1A
102
}
330
1A
100
AcDbPlotSettings
  1

  2
Ploter HP500
  4

  6

 40
0.0
 41
0.0
 42
0.0
 43
0.0
 44
0.0
 45
0.0
 46
0.0
 47
0.0
 48
0.0
 49
0.0
140
0.0
141
0.0
142
1.0
143
1.0
 70
   688
 72
     0
 73
     0
 74
     5
  7
sanindusa.ctb
 75
    16
147
1.0
148
0.0
149
0.0
100
AcDbLayout
  1
Layout2
 70
     1
 71
     2
 10
0.0
 20
0.0
 11
12.0
 21
9.0
 12
0.0
 22
0.0
 32
0.0
 14
0.0
 24
0.0
 34
0.0
 15
0.0
 25
0.0
 35
0.0
146
0.0
 13
0.0
 23
0.0
 33
0.0
 16
1.0
 26
0.0
 36
0.0
 17
0.0
 27
1.0
 37
0.0
 76
     0
330
23
  0
LAYOUT
  5
22
102
{ACAD_XDICTIONARY
360
1453
102
}
102
{ACAD_REACTORS
330
1A
102
}
330
1A
100
AcDbPlotSettings
  1

  2
Ploter HP500
  4
User268
  6

 40
4.995333194732666
 41
16.97565841674804
 42
4.995330810546875
 43
16.97567749023437
 44
209.9733276367187
 45
296.9259948730469
 46
0.0
 47
0.0
 48
0.0
 49
0.0
140
0.0
141
0.0
142
1.0
143
1.0
 70
 11952
 72
     1
 73
     1
 74
     0
  7
sanindusa.ctb
 75
     0
147
1.0
148
-427.5957866592534
149
7.362384574453926
100
AcDbLayout
  1
Model
 70
     1
 71
     0
 10
0.0
 20
0.0
 11
12.0
 21
9.0
 12
0.0
 22
0.0
 32
0.0
 14
0.0
 24
0.0
 34
0.0
 15
0.0
 25
0.0
 35
0.0
146
0.0
 13
0.0
 23
0.0
 33
0.0
 16
1.0
 26
0.0
 36
0.0
 17
0.0
 27
1.0
 37
0.0
 76
     0
330
1F
331
1068
  0
MATERIAL
  5
1072
102
{ACAD_XDICTIONARY
360
1073
102
}
102
{ACAD_REACTORS
330
EE5
102
}
330
EE5
100
AcDbMaterial
  1
ByBlock
 72
     0
 43
0.0008202099737533
 43
0.0
 43
0.0
 43
0.0
 43
0.0
 43
0.0008202099737533
 43
0.0
 43
0.0
 43
0.0
 43
0.0
 43
1.0
 43
0.0
 43
0.0
 43
0.0
 43
0.0
 43
1.0
 77
     0
 47
0.0008202099737533
 47
0.0
 47
0.0
 47
0.0
 47
0.0
 47
0.0008202099737533
 47
0.0
 47
0.0
 47
0.0
 47
0.0
 47
1.0
 47
0.0
 47
0.0
 47
0.0
 47
0.0
 47
1.0
171
     0
 49
0.0008202099737533
 49
0.0
 49
0.0
 49
0.0
 49
0.0
 49
0.0008202099737533
 49
0.0
 49
0.0
 49
0.0
 49
0.0
 49
1.0
 49
0.0
 49
0.0
 49
0.0
 49
0.0
 49
1.0
175
     0
142
0.0008202099737533
142
0.0
142
0.0
142
0.0
142
0.0
142
0.0008202099737533
142
0.0
142
0.0
142
0.0
142
0.0
142
1.0
142
0.0
142
0.0
142
0.0
142
0.0
142
1.0
179
     0
144
0.0008202099737533
144
0.0
144
0.0
144
0.0
144
0.0
144
0.0008202099737533
144
0.0
144
0.0
144
0.0
144
0.0
144
1.0
144
0.0
144
0.0
144
0.0
144
0.0
144
1.0
147
0.0008202099737533
147
0.0
147
0.0
147
0.0
147
0.0
147
0.0008202099737533
147
0.0
147
0.0
147
0.0
147
0.0
147
1.0
147
0.0
147
0.0
147
0.0
147
0.0
147
1.0
  0
MATERIAL
  5
106A
102
{ACAD_XDICTIONARY
360
106B
102
}
102
{ACAD_REACTORS
330
EE5
102
}
330
EE5
100
AcDbMaterial
  1
ByLayer
 72
     0
 43
0.0008202099737533
 43
0.0
 43
0.0
 43
0.0
 43
0.0
 43
0.0008202099737533
 43
0.0
 43
0.0
 43
0.0
 43
0.0
 43
1.0
 43
0.0
 43
0.0
 43
0.0
 43
0.0
 43
1.0
 77
     0
 47
0.0008202099737533
 47
0.0
 47
0.0
 47
0.0
 47
0.0
 47
0.0008202099737533
 47
0.0
 47
0.0
 47
0.0
 47
0.0
 47
1.0
 47
0.0
 47
0.0
 47
0.0
 47
0.0
 47
1.0
171
     0
 49
0.0008202099737533
 49
0.0
 49
0.0
 49
0.0
 49
0.0
 49
0.0008202099737533
 49
0.0
 49
0.0
 49
0.0
 49
0.0
 49
1.0
 49
0.0
 49
0.0
 49
0.0
 49
0.0
 49
1.0
175
     0
142
0.0008202099737533
142
0.0
142
0.0
142
0.0
142
0.0
142
0.0008202099737533
142
0.0
142
0.0
142
0.0
142
0.0
142
1.0
142
0.0
142
0.0
142
0.0
142
0.0
142
1.0
179
     0
144
0.0008202099737533
144
0.0
144
0.0
144
0.0
144
0.0
144
0.0008202099737533
144
0.0
144
0.0
144
0.0
144
0.0
144
1.0
144
0.0
144
0.0
144
0.0
144
0.0
144
1.0
147
0.0008202099737533
147
0.0
147
0.0
147
0.0
147
0.0
147
0.0008202099737533
147
0.0
147
0.0
147
0.0
147
0.0
147
1.0
147
0.0
147
0.0
147
0.0
147
0.0
147
1.0
  0
MATERIAL
  5
107A
102
{ACAD_XDICTIONARY
360
107B
102
}
102
{ACAD_REACTORS
330
EE5
102
}
330
EE5
100
AcDbMaterial
  1
Global
 72
     0
 43
0.0008202099737533
 43
0.0
 43
0.0
 43
0.0
 43
0.0
 43
0.0008202099737533
 43
0.0
 43
0.0
 43
0.0
 43
0.0
 43
1.0
 43
0.0
 43
0.0
 43
0.0
 43
0.0
 43
1.0
 77
     0
 47
0.0008202099737533
 47
0.0
 47
0.0
 47
0.0
 47
0.0
 47
0.0008202099737533
 47
0.0
 47
0.0
 47
0.0
 47
0.0
 47
1.0
 47
0.0
 47
0.0
 47
0.0
 47
0.0
 47
1.0
171
     0
 49
0.0008202099737533
 49
0.0
 49
0.0
 49
0.0
 49
0.0
 49
0.0008202099737533
 49
0.0
 49
0.0
 49
0.0
 49
0.0
 49
1.0
 49
0.0
 49
0.0
 49
0.0
 49
0.0
 49
1.0
175
     0
142
0.0008202099737533
142
0.0
142
0.0
142
0.0
142
0.0
142
0.0008202099737533
142
0.0
142
0.0
142
0.0
142
0.0
142
1.0
142
0.0
142
0.0
142
0.0
142
0.0
142
1.0
179
     0
144
0.0008202099737533
144
0.0
144
0.0
144
0.0
144
0.0
144
0.0008202099737533
144
0.0
144
0.0
144
0.0
144
0.0
144
1.0
144
0.0
144
0.0
144
0.0
144
0.0
144
1.0
147
0.0008202099737533
147
0.0
147
0.0
147
0.0
147
0.0
147
0.0008202099737533
147
0.0
147
0.0
147
0.0
147
0.0
147
1.0
147
0.0
147
0.0
147
0.0
147
0.0
147
1.0
  0
MLEADERSTYLE
  5
10AE
102
{ACAD_XDICTIONARY
360
148B
102
}
102
{ACAD_REACTORS
330
10AD
102
}
330
10AD
100
AcDbMLeaderStyle
170
     2
171
     1
172
     0
 90
        2
 40
0.0
 41
0.0
173
     1
 91
-1056964608
340
14
 92
       -2
290
     1
 42
2.0
291
     1
 43
0.36
  3
Standard
 44
4.0
300

342
11
174
     1
178
     6
175
     1
176
     0
 93
-1056964608
 45
4.0
292
     0
297
     0
 46
4.0
 94
-1056964608
 47
1.0
 49
1.0
140
1.0
293
     1
141
0.0
294
     1
177
     0
142
1.0
295
     0
296
     0
143
0.125
1001
ACAD_MLEADERVER
1070
     2
  0
MLINESTYLE
  5
18
102
{ACAD_REACTORS
330
17
102
}
330
17
100
AcDbMlineStyle
  2
STANDARD
 70
     0
  3

 62
   256
 51
90.0
 52
90.0
 71
     2
 49
0.5
 62
   256
  6
BYLAYER
 49
-0.5
 62
   256
  6
BYLAYER
  0
ACDBPLACEHOLDER
  5
F
102
{ACAD_REACTORS
330
E
102
}
330
E
  0
SCALE
  5
109C
102
{ACAD_REACTORS
330
109B
102
}
330
109B
100
AcDbScale
 70
     0
300
1:1
140
1.0
141
1.0
290
     1
  0
SCALE
  5
109D
102
{ACAD_REACTORS
330
109B
102
}
330
109B
100
AcDbScale
 70
     0
300
1:2
140
1.0
141
2.0
290
     0
  0
SCALE
  5
109E
102
{ACAD_REACTORS
330
109B
102
}
330
109B
100
AcDbScale
 70
     0
300
1:4
140
1.0
141
4.0
290
     0
  0
SCALE
  5
109F
102
{ACAD_REACTORS
330
109B
102
}
330
109B
100
AcDbScale
 70
     0
300
1:5
140
1.0
141
5.0
290
     0
  0
SCALE
  5
10A0
102
{ACAD_REACTORS
330
109B
102
}
330
109B
100
AcDbScale
 70
     0
300
1:8
140
1.0
141
8.0
290
     0
  0
SCALE
  5
10A1
102
{ACAD_REACTORS
330
109B
102
}
330
109B
100
AcDbScale
 70
     0
300
1:10
140
1.0
141
10.0
290
     0
  0
SCALE
  5
10A2
102
{ACAD_REACTORS
330
109B
102
}
330
109B
100
AcDbScale
 70
     0
300
1:16
140
1.0
141
16.0
290
     0
  0
SCALE
  5
10A3
102
{ACAD_REACTORS
330
109B
102
}
330
109B
100
AcDbScale
 70
     0
300
1:20
140
1.0
141
20.0
290
     0
  0
SCALE
  5
10A4
102
{ACAD_REACTORS
330
109B
102
}
330
109B
100
AcDbScale
 70
     0
300
1:30
140
1.0
141
30.0
290
     0
  0
SCALE
  5
10A5
102
{ACAD_REACTORS
330
109B
102
}
330
109B
100
AcDbScale
 70
     0
300
1:40
140
1.0
141
40.0
290
     0
  0
SCALE
  5
10A6
102
{ACAD_REACTORS
330
109B
102
}
330
109B
100
AcDbScale
 70
     0
300
1:50
140
1.0
141
50.0
290
     0
  0
SCALE
  5
10A7
102
{ACAD_REACTORS
330
109B
102
}
330
109B
100
AcDbScale
 70
     0
300
1:100
140
1.0
141
100.0
290
     0
  0
SCALE
  5
10A8
102
{ACAD_REACTORS
330
109B
102
}
330
109B
100
AcDbScale
 70
     0
300
2:1
140
2.0
141
1.0
290
     0
  0
SCALE
  5
10A9
102
{ACAD_REACTORS
330
109B
102
}
330
109B
100
AcDbScale
 70
     0
300
4:1
140
4.0
141
1.0
290
     0
  0
SCALE
  5
10AA
102
{ACAD_REACTORS
330
109B
102
}
330
109B
100
AcDbScale
 70
     0
300
8:1
140
8.0
141
1.0
290
     0
  0
SCALE
  5
10AB
102
{ACAD_REACTORS
330
109B
102
}
330
109B
100
AcDbScale
 70
     0
300
10:1
140
10.0
141
1.0
290
     0
  0
SCALE
  5
10AC
102
{ACAD_REACTORS
330
109B
102
}
330
109B
100
AcDbScale
 70
     0
300
100:1
140
100.0
141
1.0
290
     0
  0
ACDBSECTIONVIEWSTYLE
  5
10B0
102
{ACAD_REACTORS
330
10AF
102
}
330
10AF
100
AcDbModelDocViewStyle
 70
     0
  3
Metric50
290
     0
100
AcDbSectionViewStyle
 70
     0
 71
     0
 90
      102
 71
     1
340
11
 40
5.0
340
0
340
0
 40
5.0
300
I, O, Q, S, X, Z
 40
10.0
 90
        0
 40
2.5
 90
        0
 71
     2
340
16
 90
       25
340
16
 90
       50
 40
5.0
 40
2.5
 40
5.0
 71
     3
340
11
 40
5.0
 90
        0
 40
15.0
 90
        1
300
%<\AcVar ViewSectionStartId>%-%<\AcVar ViewSectionEndId>% (%<\AcVar ViewScale \f "%sn">%)
 71
     4
300
ANSI31
 40
1.0
 90
        0
290
     0
290
     0
 90
        6
 40
0.0
 40
1.570796326794896
 40
0.2617993877991494
 40
1.308996938995747
 40
-0.2617993877991494
 40
1.832595714594046
  0
TABLESTYLE
  5
EE8
102
{ACAD_XDICTIONARY
360
13F5
102
}
102
{ACAD_REACTORS
330
EE7
102
}
330
EE7
100
AcDbTableStyle
  3
Standard
 70
     0
 71
     0
 40
1.5
 41
1.5
280
     0
281
     0
  7
Standard
140
4.5
170
     2
 62
     0
 63
     7
283
     0
274
    -2
284
     1
 64
     0
275
    -2
285
     1
 65
     0
276
    -2
286
     1
 66
     0
277
    -2
287
     1
 67
     0
278
    -2
288
     1
 68
     0
279
    -2
289
     1
 69
     0
  7
Standard
140
6.0
170
     5
 62
     0
 63
     7
283
     0
274
    -2
284
     1
 64
     0
275
    -2
285
     1
 65
     0
276
    -2
286
     1
 66
     0
277
    -2
287
     1
 67
     0
278
    -2
288
     1
 68
     0
279
    -2
289
     1
 69
     0
  7
Standard
140
4.5
170
     5
 62
     0
 63
     7
283
     0
274
    -2
284
     1
 64
     0
275
    -2
285
     1
 65
     0
276
    -2
286
     1
 66
     0
277
    -2
287
     1
 67
     0
278
    -2
288
     1
 68
     0
279
    -2
289
     1
 69
     0
  0
VISUALSTYLE
  5
1088
102
{ACAD_XDICTIONARY
360
1465
102
}
102
{ACAD_REACTORS
330
1082
102
}
330
1082
100
AcDbVisualStyle
  2
2dWireframe
 70
     4
 71
     0
 72
     2
 73
     0
 90
        0
 40
-0.6
 41
-30.0
 62
     5
 63
     7
 74
     1
 91
        4
 64
     7
 65
   257
 75
     1
175
     1
 42
1.0
 92
        0
 66
   257
 43
1.0
 76
     1
 77
     6
 78
     2
 67
     7
 79
     5
170
     0
171
     0
290
     0
174
     0
 93
        1
 44
0.0
173
     0
291
     0
 45
0.0
1001
ACAD
1000
AcDbSavedByObjectVersion
1070
     0
  0
VISUALSTYLE
  5
1177
102
{ACAD_XDICTIONARY
360
148D
102
}
102
{ACAD_REACTORS
330
1082
102
}
330
1082
100
AcDbVisualStyle
  2
3dWireframe
 70
     5
 71
     0
 72
     2
 73
     0
 90
        0
 40
-0.6
 41
-30.0
 62
     5
 63
     7
 74
     1
 91
        4
 64
     7
 65
   257
 75
     1
175
     1
 42
1.0
 92
        0
 66
   257
 43
1.0
 76
     1
 77
     6
 78
     2
 67
     7
 79
     5
170
     0
171
     0
290
     0
174
     0
 93
        1
 44
0.0
173
     0
291
     0
 45
0.0
1001
ACAD
1000
AcDbSavedByObjectVersion
1070
     0
  0
VISUALSTYLE
  5
1087
102
{ACAD_XDICTIONARY
360
1463
102
}
102
{ACAD_REACTORS
330
1082
102
}
330
1082
100
AcDbVisualStyle
  2
Basic
 70
     7
 71
     1
 72
     0
 73
     1
 90
        0
 40
-0.6
 41
-30.0
 62
     5
 63
     7
 74
     0
 91
        4
 64
     7
 65
   257
 75
     1
175
     1
 42
1.0
 92
        8
 66
     7
 43
1.0
 76
     1
 77
     6
 78
     2
 67
     7
 79
     5
170
     0
171
     0
290
     0
174
     0
 93
        1
 44
0.0
173
     0
291
     1
 45
0.0
1001
ACAD
1000
AcDbSavedByObjectVersion
1070
     0
  0
VISUALSTYLE
  5
108E
102
{ACAD_XDICTIONARY
360
1471
102
}
102
{ACAD_REACTORS
330
1082
102
}
330
1082
100
AcDbVisualStyle
  2
Brighten
 70
    12
 71
     2
 72
     2
 73
     0
 90
        0
 40
-0.6
 41
-30.0
 62
     5
 63
     7
 74
     1
 91
        4
 64
     7
 65
   257
 75
     1
175
     1
 42
1.0
 92
        8
 66
     7
 43
1.0
 76
     1
 77
     6
 78
     2
 67
     7
 79
     5
170
     0
171
     0
290
     0
174
     0
 93
        1
 44
50.0
173
     0
291
     1
 45
0.0
1001
ACAD
1000
AcDbSavedByObjectVersion
1070
     0
  0
VISUALSTYLE
  5
1092
102
{ACAD_XDICTIONARY
360
1479
102
}
102
{ACAD_REACTORS
330
1082
102
}
330
1082
100
AcDbVisualStyle
  2
ColorChange
 70
    16
 71
     2
 72
     2
 73
     3
 90
        0
 40
-0.6
 41
-30.0
 62
     5
 63
     8
 74
     1
 91
        4
 64
     7
 65
   257
 75
     1
175
     1
 42
1.0
 92
        8
 66
     8
 43
1.0
 76
     1
 77
     6
 78
     2
 67
     7
 79
     5
170
     0
171
     0
290
     0
174
     0
 93
        1
 44
0.0
173
     0
291
     1
 45
0.0
1001
ACAD
1000
AcDbSavedByObjectVersion
1070
     0
  0
VISUALSTYLE
  5
108B
102
{ACAD_XDICTIONARY
360
146B
102
}
102
{ACAD_REACTORS
330
1082
102
}
330
1082
100
AcDbVisualStyle
  2
Conceptual
 70
     9
 71
     3
 72
     2
 73
     0
 90
        0
 40
-0.6
 41
-30.0
 62
     5
 63
     7
 74
     2
 91
        2
 64
     7
 65
   257
 75
     1
175
     1
 42
179.0
 92
        8
 66
     7
 43
1.0
 76
     1
 77
     6
 78
     2
 67
     7
 79
     3
170
     0
171
     0
290
     0
174
     0
 93
        1
 44
0.0
173
     0
291
     0
 45
0.0
1001
ACAD
1000
AcDbSavedByObjectVersion
1070
     0
  0
VISUALSTYLE
  5
108D
102
{ACAD_XDICTIONARY
360
146F
102
}
102
{ACAD_REACTORS
330
1082
102
}
330
1082
100
AcDbVisualStyle
  2
Dim
 70
    11
 71
     2
 72
     2
 73
     0
 90
        0
 40
-0.6
 41
-30.0
 62
     5
 63
     7
 74
     1
 91
        4
 64
     7
 65
   257
 75
     1
175
     1
 42
1.0
 92
        8
 66
     7
 43
1.0
 76
     1
 77
     6
 78
     2
 67
     7
 79
     5
170
     0
171
     0
290
     0
174
     0
 93
        1
 44
-50.0
173
     0
291
     1
 45
0.0
1001
ACAD
1000
AcDbSavedByObjectVersion
1070
     0
  0
VISUALSTYLE
  5
109A
102
{ACAD_XDICTIONARY
360
1489
102
}
102
{ACAD_REACTORS
330
1082
102
}
330
1082
100
AcDbVisualStyle
  2
EdgeColorOff
 70
    22
 71
     2
 72
     2
 73
     0
 90
        0
 40
-0.6
 41
-30.0
 62
     5
 63
     7
 74
     1
 91
        4
 64
     7
 65
   257
 75
     1
175
     1
 42
1.0
 92
        8
 66
     7
 43
1.0
 76
     1
 77
     6
 78
     2
 67
     7
 79
     5
170
     0
171
     0
290
     0
174
     0
 93
        1
 44
0.0
173
     0
291
     1
 45
0.0
1001
ACAD
1000
AcDbSavedByObjectVersion
1070
     0
  0
VISUALSTYLE
  5
1091
102
{ACAD_XDICTIONARY
360
1477
102
}
102
{ACAD_REACTORS
330
1082
102
}
330
1082
100
AcDbVisualStyle
  2
Facepattern
 70
    15
 71
     2
 72
     2
 73
     0
 90
        0
 40
-0.6
 41
-30.0
 62
     5
 63
     7
 74
     1
 91
        4
 64
     7
 65
   257
 75
     1
175
     1
 42
1.0
 92
        8
 66
     7
 43
1.0
 76
     1
 77
     6
 78
     2
 67
     7
 79
     5
170
     0
171
     0
290
     0
174
     0
 93
        1
 44
0.0
173
     0
291
     1
 45
0.0
1001
ACAD
1000
AcDbSavedByObjectVersion
1070
     0
  0
VISUALSTYLE
  5
1083
102
{ACAD_XDICTIONARY
360
145B
102
}
102
{ACAD_REACTORS
330
1082
102
}
330
1082
100
AcDbVisualStyle
  2
Flat
 70
     0
 71
     2
 72
     1
 73
     1
 90
        2
 40
-0.6
 41
30.0
 62
     5
 63
     7
 74
     0
 91
        0
 64
     7
 65
   257
 75
     1
175
     1
 42
1.0
 92
        8
 66
     7
 43
1.0
 76
     1
 77
     6
 78
     2
 67
     7
 79
     5
170
     0
171
     0
290
     0
174
     0
 93
       13
 44
0.0
173
     0
291
     1
 45
0.0
1001
ACAD
1000
AcDbSavedByObjectVersion
1070
     0
  0
VISUALSTYLE
  5
1084
102
{ACAD_XDICTIONARY
360
145D
102
}
102
{ACAD_REACTORS
330
1082
102
}
330
1082
100
AcDbVisualStyle
  2
FlatWithEdges
 70
     1
 71
     2
 72
     1
 73
     1
 90
        2
 40
-0.6
 41
30.0
 62
     5
 63
     7
 74
     1
 91
        0
 64
     7
 65
   257
 75
     1
175
     1
 42
1.0
 92
        0
 66
   257
 43
1.0
 76
     1
 77
     6
 78
     2
 67
     7
 79
     5
170
     0
171
     0
290
     0
174
     0
 93
       13
 44
0.0
173
     0
291
     1
 45
0.0
1001
ACAD
1000
AcDbSavedByObjectVersion
1070
     0
  0
VISUALSTYLE
  5
1085
102
{ACAD_XDICTIONARY
360
145F
102
}
102
{ACAD_REACTORS
330
1082
102
}
330
1082
100
AcDbVisualStyle
  2
Gouraud
 70
     2
 71
     2
 72
     2
 73
     1
 90
        2
 40
-0.6
 41
30.0
 62
     5
 63
     7
 74
     0
 91
        0
 64
     7
 65
   257
 75
     1
175
     1
 42
1.0
 92
        0
 66
     7
 43
1.0
 76
     1
 77
     6
 78
     2
 67
     7
 79
     5
170
     0
171
     0
290
     0
174
     0
 93
       13
 44
0.0
173
     0
291
     1
 45
0.0
1001
ACAD
1000
AcDbSavedByObjectVersion
1070
     0
  0
VISUALSTYLE
  5
1086
102
{ACAD_XDICTIONARY
360
1461
102
}
102
{ACAD_REACTORS
330
1082
102
}
330
1082
100
AcDbVisualStyle
  2
GouraudWithEdges
 70
     3
 71
     2
 72
     2
 73
     1
 90
        2
 40
-0.6
 41
30.0
 62
     5
 63
     7
 74
     1
 91
        0
 64
     7
 65
   257
 75
     1
175
     1
 42
1.0
 92
        0
 66
   257
 43
1.0
 76
     1
 77
     6
 78
     2
 67
     7
 79
     5
170
     0
171
     0
290
     0
174
     0
 93
       13
 44
0.0
173
     0
291
     1
 45
0.0
1001
ACAD
1000
AcDbSavedByObjectVersion
1070
     0
  0
VISUALSTYLE
  5
108A
102
{ACAD_XDICTIONARY
360
1469
102
}
102
{ACAD_REACTORS
330
1082
102
}
330
1082
100
AcDbVisualStyle
  2
Hidden
 70
     6
 71
     1
 72
     2
 73
     2
 90
        0
 40
-0.6
 41
-30.0
 62
     5
 63
     7
 74
     2
 91
        2
 64
     7
 65
   257
 75
     2
175
     1
 42
40.0
 92
        0
 66
   257
 43
1.0
 76
     1
 77
     6
 78
     2
 67
     7
 79
     3
170
     0
171
     0
290
     0
174
     0
 93
        1
 44
0.0
173
     0
291
     0
 45
0.0
1001
ACAD
1000
AcDbSavedByObjectVersion
1070
     0
  0
VISUALSTYLE
  5
1098
102
{ACAD_XDICTIONARY
360
1485
102
}
102
{ACAD_REACTORS
330
1082
102
}
330
1082
100
AcDbVisualStyle
  2
JitterOff
 70
    20
 71
     2
 72
     2
 73
     0
 90
        0
 40
-0.6
 41
-30.0
 62
     5
 63
     7
 74
     1
 91
        4
 64
     7
 65
   257
 75
     1
175
     1
 42
1.0
 92
       10
 66
     7
 43
1.0
 76
     1
 77
     6
 78
     2
 67
     7
 79
     5
170
     0
171
     0
290
     0
174
     0
 93
        1
 44
0.0
173
     0
291
     1
 45
0.0
1001
ACAD
1000
AcDbSavedByObjectVersion
1070
     0
  0
VISUALSTYLE
  5
1090
102
{ACAD_XDICTIONARY
360
1475
102
}
102
{ACAD_REACTORS
330
1082
102
}
330
1082
100
AcDbVisualStyle
  2
Linepattern
 70
    14
 71
     2
 72
     2
 73
     0
 90
        0
 40
-0.6
 41
-30.0
 62
     5
 63
     7
 74
     1
 91
        4
 64
     7
 65
   257
 75
     7
175
     7
 42
1.0
 92
        8
 66
     7
 43
1.0
 76
     1
 77
     6
 78
     2
 67
     7
 79
     5
170
     0
171
     0
290
     0
174
     0
 93
        1
 44
0.0
173
     0
291
     1
 45
0.0
1001
ACAD
1000
AcDbSavedByObjectVersion
1070
     0
  0
VISUALSTYLE
  5
1099
102
{ACAD_XDICTIONARY
360
1487
102
}
102
{ACAD_REACTORS
330
1082
102
}
330
1082
100
AcDbVisualStyle
  2
OverhangOff
 70
    21
 71
     2
 72
     2
 73
     0
 90
        0
 40
-0.6
 41
-30.0
 62
     5
 63
     7
 74
     1
 91
        4
 64
     7
 65
   257
 75
     1
175
     1
 42
1.0
 92
        9
 66
     7
 43
1.0
 76
     1
 77
     6
 78
     2
 67
     7
 79
     5
170
     0
171
     0
290
     0
174
     0
 93
        1
 44
0.0
173
     0
291
     1
 45
0.0
1001
ACAD
1000
AcDbSavedByObjectVersion
1070
     0
  0
VISUALSTYLE
  5
108C
102
{ACAD_XDICTIONARY
360
146D
102
}
102
{ACAD_REACTORS
330
1082
102
}
330
1082
100
AcDbVisualStyle
  2
Realistic
 70
     8
 71
     2
 72
     2
 73
     0
 90
        2
 40
-0.6
 41
30.0
 62
     5
 63
     7
 74
     0
 91
        0
 64
     7
 65
   257
 75
     1
175
     1
 42
1.0
 92
        8
 66
   257
 43
1.0
 76
     1
 77
     6
 78
     2
 67
     7
 79
     3
170
     0
171
     0
290
     0
174
     0
 93
       13
 44
0.0
173
     0
291
     0
 45
0.0
1001
ACAD
1000
AcDbSavedByObjectVersion
1070
     0
  0
VISUALSTYLE
  5
1097
102
{ACAD_XDICTIONARY
360
1483
102
}
102
{ACAD_REACTORS
330
1082
102
}
330
1082
100
AcDbVisualStyle
  2
Shaded
 70
    27
 71
     2
 72
     2
 73
     1
 90
        2
 40
-0.6
 41
30.0
 62
     5
 63
     7
 74
     0
 91
        4
 64
     7
 65
   257
 75
     1
175
     1
 42
1.0
 92
        8
 66
   257
 43
1.0
 76
     1
 77
     6
 78
     2
 67
     8
 79
     3
170
     0
171
     0
290
     0
174
     0
 93
        5
 44
0.0
173
     0
291
     0
 45
0.0
1001
ACAD
1000
AcDbSavedByObjectVersion
1070
     0
  0
VISUALSTYLE
  5
1096
102
{ACAD_XDICTIONARY
360
1481
102
}
102
{ACAD_REACTORS
330
1082
102
}
330
1082
100
AcDbVisualStyle
  2
Shaded with edges
 70
    26
 71
     2
 72
     2
 73
     1
 90
        2
 40
-0.6
 41
30.0
 62
     5
 63
     7
 74
     1
 91
       10
 64
     7
 65
   257
 75
     2
175
     1
 42
1.0
 92
        8
 66
   257
 43
1.0
 76
     1
 77
     6
 78
     2
 67
     7
 79
     3
170
     0
171
     0
290
     0
174
     0
 93
        5
 44
0.0
173
     0
291
     0
 45
0.0
1001
ACAD
1000
AcDbSavedByObjectVersion
1070
     0
  0
VISUALSTYLE
  5
1093
102
{ACAD_XDICTIONARY
360
147B
102
}
102
{ACAD_REACTORS
330
1082
102
}
330
1082
100
AcDbVisualStyle
  2
Shades of Gray
 70
    23
 71
     2
 72
     2
 73
     3
 90
        0
 40
-0.6
 41
-30.0
 62
     5
 63
     7
 74
     2
 91
        2
 64
     7
 65
     7
 75
     1
175
     1
 42
40.0
 92
        8
 66
     7
 43
1.0
 76
     1
 77
     6
 78
     2
 67
     7
 79
     3
170
     0
171
     0
290
     0
174
     0
 93
        1
 44
0.0
173
     0
291
     0
 45
0.0
1001
ACAD
1000
AcDbSavedByObjectVersion
1070
     0
  0
VISUALSTYLE
  5
1094
102
{ACAD_XDICTIONARY
360
147D
102
}
102
{ACAD_REACTORS
330
1082
102
}
330
1082
100
AcDbVisualStyle
  2
Sketchy
 70
    24
 71
     1
 72
     2
 73
     2
 90
        0
 40
-0.6
 41
-30.0
 62
     5
 63
     7
 74
     2
 91
        2
 64
     7
 65
     7
 75
     1
175
     1
 42
40.0
 92
       11
 66
     7
 43
1.0
 76
     1
 77
     6
 78
     2
 67
     7
 79
     6
170
     0
171
     0
290
     0
174
     0
 93
        1
 44
0.0
173
     0
291
     0
 45
0.0
1001
ACAD
1000
AcDbSavedByObjectVersion
1070
     0
  0
VISUALSTYLE
  5
108F
102
{ACAD_XDICTIONARY
360
1473
102
}
102
{ACAD_REACTORS
330
1082
102
}
330
1082
100
AcDbVisualStyle
  2
Thicken
 70
    13
 71
     2
 72
     2
 73
     0
 90
        0
 40
-0.6
 41
-30.0
 62
     5
 63
     7
 74
     1
 91
        4
 64
     7
 65
   257
 75
     1
175
     1
 42
1.0
 92
       12
 66
     7
 43
1.0
 76
     1
 77
     6
 78
     2
 67
     7
 79
     5
170
     0
171
     0
290
     0
174
     0
 93
        1
 44
0.0
173
     0
291
     1
 45
0.0
1001
ACAD
1000
AcDbSavedByObjectVersion
1070
     0
  0
VISUALSTYLE
  5
1089
102
{ACAD_XDICTIONARY
360
1467
102
}
102
{ACAD_REACTORS
330
1082
102
}
330
1082
100
AcDbVisualStyle
  2
Wireframe
 70
     5
 71
     0
 72
     2
 73
     0
 90
        0
 40
-0.6
 41
-30.0
 62
     5
 63
     7
 74
     1
 91
        4
 64
     7
 65
   257
 75
     1
175
     1
 42
1.0
 92
        0
 66
   257
 43
1.0
 76
     1
 77
     6
 78
     2
 67
     7
 79
     3
170
     0
171
     0
290
     0
174
     0
 93
        1
 44
0.0
173
     0
291
     0
 45
0.0
1001
ACAD
1000
AcDbSavedByObjectVersion
1070
     0
  0
VISUALSTYLE
  5
1095
102
{ACAD_XDICTIONARY
360
147F
102
}
102
{ACAD_REACTORS
330
1082
102
}
330
1082
100
AcDbVisualStyle
  2
X-Ray
 70
    25
 71
     2
 72
     2
 73
     1
 90
        1
 40
0.5
 41
-30.0
 62
     5
 63
     7
 74
     1
 91
        0
 64
     7
 65
   257
 75
     1
175
     1
 42
1.0
 92
        8
 66
     7
 43
1.0
 76
     1
 77
     6
 78
     2
 67
     7
 79
     3
170
     0
171
     0
290
     0
174
     0
 93
       13
 44
0.0
173
     0
291
     0
 45
0.0
1001
ACAD
1000
AcDbSavedByObjectVersion
1070
     0
  0
DICTIONARYVAR
  5
143E
102
{ACAD_REACTORS
330
3D
102
}
330
3D
100
DictionaryVariables
280
     0
  1
1:1
  0
DICTIONARYVAR
  5
143B
102
{ACAD_REACTORS
330
3D
102
}
330
3D
100
DictionaryVariables
280
     0
  1
STANDARD
  0
DICTIONARYVAR
  5
1049
102
{ACAD_REACTORS
330
3D
102
}
330
3D
100
DictionaryVariables
280
     0
  1
STANDARD
  0
DICTIONARYVAR
  5
143C
102
{ACAD_REACTORS
330
3D
102
}
330
3D
100
DictionaryVariables
280
     0
  1
Metric50
  0
DICTIONARYVAR
  5
143D
102
{ACAD_REACTORS
330
3D
102
}
330
3D
100
DictionaryVariables
280
     0
  1
Metric50
  0
DICTIONARYVAR
  5
3F
102
{ACAD_REACTORS
330
3D
102
}
330
3D
100
DictionaryVariables
280
     0
  1
2
  0
DICTIONARYVAR
  5
3E
102
{ACAD_REACTORS
330
3D
102
}
330
3D
100
DictionaryVariables
280
     0
  1
1
  0
DICTIONARYVAR
  5
1440
102
{ACAD_REACTORS
330
3D
102
}
330
3D
100
DictionaryVariables
280
     0
  1
0
  0
DICTIONARYVAR
  5
143F
102
{ACAD_REACTORS
330
3D
102
}
330
3D
100
DictionaryVariables
280
     0
  1
127
  0
DICTIONARYVAR
  5
144B
102
{ACAD_REACTORS
330
3D
102
}
330
3D
100
DictionaryVariables
280
     0
  1
2
  0
XRECORD
  5
1067
102
{ACAD_REACTORS
330
1066
102
}
330
1066
100
AcDbXrecord
280
     1
  0
DICTIONARY
  5
1451
330
1E
100
AcDbDictionary
280
     1
281
     1
  3
ACAD_XREC_ROUNDTRIP
360
1452
  0
DICTIONARY
  5
1455
330
26
100
AcDbDictionary
280
     1
281
     1
  3
ACAD_XREC_ROUNDTRIP
360
1456
  0
DICTIONARY
  5
1453
330
22
100
AcDbDictionary
280
     1
281
     1
  3
ACAD_XREC_ROUNDTRIP
360
1454
  0
DICTIONARY
  5
1073
330
1072
100
AcDbDictionary
280
     1
281
     1
  3
ACAD_XREC_ROUNDTRIP
360
1459
  3
BUMPTILE
360
1075
  3
DIFFUSETILE
360
1074
  3
OPACITYTILE
360
1078
  3
REFLECTIONTILE
360
1077
  3
REFRACTIONTILE
360
1079
  3
SPECULARTILE
360
1076
  0
DICTIONARY
  5
106B
330
106A
100
AcDbDictionary
280
     1
281
     1
  3
ACAD_XREC_ROUNDTRIP
360
1458
  3
BUMPTILE
360
106D
  3
DIFFUSETILE
360
106C
  3
OPACITYTILE
360
1070
  3
REFLECTIONTILE
360
106F
  3
REFRACTIONTILE
360
1071
  3
SPECULARTILE
360
106E
  0
DICTIONARY
  5
107B
330
107A
100
AcDbDictionary
280
     1
281
     1
  3
ACAD_XREC_ROUNDTRIP
360
145A
  3
BUMPTILE
360
107D
  3
DIFFUSETILE
360
107C
  3
OPACITYTILE
360
1080
  3
REFLECTIONTILE
360
107F
  3
REFRACTIONTILE
360
1081
  3
SPECULARTILE
360
107E
  0
DICTIONARY
  5
148B
330
10AE
100
AcDbDictionary
280
     1
281
     1
  3
ACAD_XREC_ROUNDTRIP
360
148C
  0
DICTIONARY
  5
13F5
330
EE8
100
AcDbDictionary
280
     1
281
     1
  3
ACAD_ROUNDTRIP_2008_TABLESTYLE_CELLSTYLEMAP
360
144C
  3
ACAD_XREC_ROUNDTRIP
360
1457
  0
DICTIONARY
  5
1465
330
1088
100
AcDbDictionary
280
     1
281
     1
  3
ACAD_XREC_ROUNDTRIP
360
1466
  0
DICTIONARY
  5
148D
330
1177
100
AcDbDictionary
280
     1
281
     1
  3
ACAD_XREC_ROUNDTRIP
360
148E
  0
DICTIONARY
  5
1463
330
1087
100
AcDbDictionary
280
     1
281
     1
  3
ACAD_XREC_ROUNDTRIP
360
1464
  0
DICTIONARY
  5
1471
330
108E
100
AcDbDictionary
280
     1
281
     1
  3
ACAD_XREC_ROUNDTRIP
360
1472
  0
DICTIONARY
  5
1479
330
1092
100
AcDbDictionary
280
     1
281
     1
  3
ACAD_XREC_ROUNDTRIP
360
147A
  0
DICTIONARY
  5
146B
330
108B
100
AcDbDictionary
280
     1
281
     1
  3
ACAD_XREC_ROUNDTRIP
360
146C
  0
DICTIONARY
  5
146F
330
108D
100
AcDbDictionary
280
     1
281
     1
  3
ACAD_XREC_ROUNDTRIP
360
1470
  0
DICTIONARY
  5
1489
330
109A
100
AcDbDictionary
280
     1
281
     1
  3
ACAD_XREC_ROUNDTRIP
360
148A
  0
DICTIONARY
  5
1477
330
1091
100
AcDbDictionary
280
     1
281
     1
  3
ACAD_XREC_ROUNDTRIP
360
1478
  0
DICTIONARY
  5
145B
330
1083
100
AcDbDictionary
280
     1
281
     1
  3
ACAD_XREC_ROUNDTRIP
360
145C
  0
DICTIONARY
  5
145D
330
1084
100
AcDbDictionary
280
     1
281
     1
  3
ACAD_XREC_ROUNDTRIP
360
145E
  0
DICTIONARY
  5
145F
330
1085
100
AcDbDictionary
280
     1
281
     1
  3
ACAD_XREC_ROUNDTRIP
360
1460
  0
DICTIONARY
  5
1461
330
1086
100
AcDbDictionary
280
     1
281
     1
  3
ACAD_XREC_ROUNDTRIP
360
1462
  0
DICTIONARY
  5
1469
330
108A
100
AcDbDictionary
280
     1
281
     1
  3
ACAD_XREC_ROUNDTRIP
360
146A
  0
DICTIONARY
  5
1485
330
1098
100
AcDbDictionary
280
     1
281
     1
  3
ACAD_XREC_ROUNDTRIP
360
1486
  0
DICTIONARY
  5
1475
330
1090
100
AcDbDictionary
280
     1
281
     1
  3
ACAD_XREC_ROUNDTRIP
360
1476
  0
DICTIONARY
  5
1487
330
1099
100
AcDbDictionary
280
     1
281
     1
  3
ACAD_XREC_ROUNDTRIP
360
1488
  0
DICTIONARY
  5
146D
330
108C
100
AcDbDictionary
280
     1
281
     1
  3
ACAD_XREC_ROUNDTRIP
360
146E
  0
DICTIONARY
  5
1483
330
1097
100
AcDbDictionary
280
     1
281
     1
  3
ACAD_XREC_ROUNDTRIP
360
1484
  0
DICTIONARY
  5
1481
330
1096
100
AcDbDictionary
280
     1
281
     1
  3
ACAD_XREC_ROUNDTRIP
360
1482
  0
DICTIONARY
  5
147B
330
1093
100
AcDbDictionary
280
     1
281
     1
  3
ACAD_XREC_ROUNDTRIP
360
147C
  0
DICTIONARY
  5
147D
330
1094
100
AcDbDictionary
280
     1
281
     1
  3
ACAD_XREC_ROUNDTRIP
360
147E
  0
DICTIONARY
  5
1473
330
108F
100
AcDbDictionary
280
     1
281
     1
  3
ACAD_XREC_ROUNDTRIP
360
1474
  0
DICTIONARY
  5
1467
330
1089
100
AcDbDictionary
280
     1
281
     1
  3
ACAD_XREC_ROUNDTRIP
360
1468
  0
DICTIONARY
  5
147F
330
1095
100
AcDbDictionary
280
     1
281
     1
  3
ACAD_XREC_ROUNDTRIP
360
1480
  0
XRECORD
  5
1452
102
{ACAD_REACTORS
330
1451
102
}
330
1451
100
AcDbXrecord
280
     1
102
SHADEPLOT
 70
     0
102
SHADEPLOTRESLEVEL
 70
     2
102
SHADEPLOTCUSTOMDPI
 70
   300
  0
XRECORD
  5
1456
102
{ACAD_REACTORS
330
1455
102
}
330
1455
100
AcDbXrecord
280
     1
102
SHADEPLOT
 70
     0
102
SHADEPLOTRESLEVEL
 70
     2
102
SHADEPLOTCUSTOMDPI
 70
   300
  0
XRECORD
  5
1454
102
{ACAD_REACTORS
330
1453
102
}
330
1453
100
AcDbXrecord
280
     1
102
SHADEPLOT
 70
     0
102
SHADEPLOTRESLEVEL
 70
     2
102
SHADEPLOTCUSTOMDPI
 70
   300
  0
XRECORD
  5
1459
102
{ACAD_REACTORS
330
1073
102
}
330
1073
100
AcDbXrecord
280
     1
102
MATERIAL
148
0.0
149
0.0
149
0.0
 93
        0
 94
      127
282
     0
 72
     0
 77
     0
171
     0
175
     0
179
     0
273
     0
  0
XRECORD
  5
1075
102
{ACAD_REACTORS
330
1073
102
}
330
1073
100
AcDbXrecord
280
     1
270
     1
271
     1
  0
XRECORD
  5
1074
102
{ACAD_REACTORS
330
1073
102
}
330
1073
100
AcDbXrecord
280
     1
270
     1
271
     1
  0
XRECORD
  5
1078
102
{ACAD_REACTORS
330
1073
102
}
330
1073
100
AcDbXrecord
280
     1
270
     1
271
     1
  0
XRECORD
  5
1077
102
{ACAD_REACTORS
330
1073
102
}
330
1073
100
AcDbXrecord
280
     1
270
     1
271
     1
  0
XRECORD
  5
1079
102
{ACAD_REACTORS
330
1073
102
}
330
1073
100
AcDbXrecord
280
     1
270
     1
271
     1
  0
XRECORD
  5
1076
102
{ACAD_REACTORS
330
1073
102
}
330
1073
100
AcDbXrecord
280
     1
270
     1
271
     1
  0
XRECORD
  5
1458
102
{ACAD_REACTORS
330
106B
102
}
330
106B
100
AcDbXrecord
280
     1
102
MATERIAL
148
0.0
149
0.0
149
0.0
 93
        0
 94
      127
282
     0
 72
     0
 77
     0
171
     0
175
     0
179
     0
273
     0
  0
XRECORD
  5
106D
102
{ACAD_REACTORS
330
106B
102
}
330
106B
100
AcDbXrecord
280
     1
270
     1
271
     1
  0
XRECORD
  5
106C
102
{ACAD_REACTORS
330
106B
102
}
330
106B
100
AcDbXrecord
280
     1
270
     1
271
     1
  0
XRECORD
  5
1070
102
{ACAD_REACTORS
330
106B
102
}
330
106B
100
AcDbXrecord
280
     1
270
     1
271
     1
  0
XRECORD
  5
106F
102
{ACAD_REACTORS
330
106B
102
}
330
106B
100
AcDbXrecord
280
     1
270
     1
271
     1
  0
XRECORD
  5
1071
102
{ACAD_REACTORS
330
106B
102
}
330
106B
100
AcDbXrecord
280
     1
270
     1
271
     1
  0
XRECORD
  5
106E
102
{ACAD_REACTORS
330
106B
102
}
330
106B
100
AcDbXrecord
280
     1
270
     1
271
     1
  0
XRECORD
  5
145A
102
{ACAD_REACTORS
330
107B
102
}
330
107B
100
AcDbXrecord
280
     1
102
MATERIAL
148
0.0
149
0.0
149
0.0
 93
        0
 94
      127
282
     0
 72
     0
 77
     0
171
     0
175
     0
179
     0
273
     0
  0
XRECORD
  5
107D
102
{ACAD_REACTORS
330
107B
102
}
330
107B
100
AcDbXrecord
280
     1
270
     1
271
     1
  0
XRECORD
  5
107C
102
{ACAD_REACTORS
330
107B
102
}
330
107B
100
AcDbXrecord
280
     1
270
     1
271
     1
  0
XRECORD
  5
1080
102
{ACAD_REACTORS
330
107B
102
}
330
107B
100
AcDbXrecord
280
     1
270
     1
271
     1
  0
XRECORD
  5
107F
102
{ACAD_REACTORS
330
107B
102
}
330
107B
100
AcDbXrecord
280
     1
270
     1
271
     1
  0
XRECORD
  5
1081
102
{ACAD_REACTORS
330
107B
102
}
330
107B
100
AcDbXrecord
280
     1
270
     1
271
     1
  0
XRECORD
  5
107E
102
{ACAD_REACTORS
330
107B
102
}
330
107B
100
AcDbXrecord
280
     1
270
     1
271
     1
  0
XRECORD
  5
148C
102
{ACAD_REACTORS
330
148B
102
}
330
148B
100
AcDbXrecord
280
     1
102
ACAD_ROUNDTRIP_2012_MLEADER_STYLE
298
     1
  0
CELLSTYLEMAP
  5
144C
102
{ACAD_REACTORS
330
13F5
102
}
330
13F5
100
AcDbCellStyleMap
 90
        3
300
CELLSTYLE
  1
TABLEFORMAT_BEGIN
 90
        5
170
     1
 91
        0
 92
    32768
 62
   257
 93
        1
300
CONTENTFORMAT
  1
CONTENTFORMAT_BEGIN
 90
        0
 91
        0
 92
        4
 93
        0
300

 40
0.0
140
1.0
 94
        5
 62
     0
340
11
144
6.0
309
CONTENTFORMAT_END
171
     1
301
MARGIN
  1
CELLMARGIN_BEGIN
 40
1.5
 40
1.5
 40
1.5
 40
1.5
 40
0.18
 40
0.18
309
CELLMARGIN_END
 94
        6
 95
        1
302
GRIDFORMAT
  1
GRIDFORMAT_BEGIN
 90
        0
 91
        1
 62
     0
 92
       -2
340
0
 93
        0
 40
0.045
309
GRIDFORMAT_END
 95
        2
302
GRIDFORMAT
  1
GRIDFORMAT_BEGIN
 90
        0
 91
        1
 62
     0
 92
       -2
340
0
 93
        0
 40
0.045
309
GRIDFORMAT_END
 95
        4
302
GRIDFORMAT
  1
GRIDFORMAT_BEGIN
 90
        0
 91
        1
 62
     0
 92
       -2
340
0
 93
        0
 40
0.045
309
GRIDFORMAT_END
 95
        8
302
GRIDFORMAT
  1
GRIDFORMAT_BEGIN
 90
        0
 91
        1
 62
     0
 92
       -2
340
0
 93
        0
 40
0.045
309
GRIDFORMAT_END
 95
       16
302
GRIDFORMAT
  1
GRIDFORMAT_BEGIN
 90
        0
 91
        1
 62
     0
 92
       -2
340
0
 93
        0
 40
0.045
309
GRIDFORMAT_END
 95
       32
302
GRIDFORMAT
  1
GRIDFORMAT_BEGIN
 90
        0
 91
        1
 62
     0
 92
       -2
340
0
 93
        0
 40
0.045
309
GRIDFORMAT_END
309
TABLEFORMAT_END
  1
CELLSTYLE_BEGIN
 90
        1
 91
        1
300
_TITLE
309
CELLSTYLE_END
300
CELLSTYLE
  1
TABLEFORMAT_BEGIN
 90
        5
170
     1
 91
        0
 92
        0
 62
   257
 93
        1
300
CONTENTFORMAT
  1
CONTENTFORMAT_BEGIN
 90
        0
 91
        0
 92
        4
 93
        0
300

 40
0.0
140
1.0
 94
        5
 62
     0
340
11
144
4.5
309
CONTENTFORMAT_END
171
     1
301
MARGIN
  1
CELLMARGIN_BEGIN
 40
1.5
 40
1.5
 40
1.5
 40
1.5
 40
0.18
 40
0.18
309
CELLMARGIN_END
 94
        6
 95
        1
302
GRIDFORMAT
  1
GRIDFORMAT_BEGIN
 90
        0
 91
        1
 62
     0
 92
       -2
340
0
 93
        0
 40
0.045
309
GRIDFORMAT_END
 95
        2
302
GRIDFORMAT
  1
GRIDFORMAT_BEGIN
 90
        0
 91
        1
 62
     0
 92
       -2
340
0
 93
        0
 40
0.045
309
GRIDFORMAT_END
 95
        4
302
GRIDFORMAT
  1
GRIDFORMAT_BEGIN
 90
        0
 91
        1
 62
     0
 92
       -2
340
0
 93
        0
 40
0.045
309
GRIDFORMAT_END
 95
        8
302
GRIDFORMAT
  1
GRIDFORMAT_BEGIN
 90
        0
 91
        1
 62
     0
 92
       -2
340
0
 93
        0
 40
0.045
309
GRIDFORMAT_END
 95
       16
302
GRIDFORMAT
  1
GRIDFORMAT_BEGIN
 90
        0
 91
        1
 62
     0
 92
       -2
340
0
 93
        0
 40
0.045
309
GRIDFORMAT_END
 95
       32
302
GRIDFORMAT
  1
GRIDFORMAT_BEGIN
 90
        0
 91
        1
 62
     0
 92
       -2
340
0
 93
        0
 40
0.045
309
GRIDFORMAT_END
309
TABLEFORMAT_END
  1
CELLSTYLE_BEGIN
 90
        2
 91
        1
300
_HEADER
309
CELLSTYLE_END
300
CELLSTYLE
  1
TABLEFORMAT_BEGIN
 90
        5
170
     1
 91
        0
 92
        0
 62
   257
 93
        1
300
CONTENTFORMAT
  1
CONTENTFORMAT_BEGIN
 90
        0
 91
        0
 92
        4
 93
        0
300

 40
0.0
140
1.0
 94
        2
 62
     0
340
11
144
4.5
309
CONTENTFORMAT_END
171
     1
301
MARGIN
  1
CELLMARGIN_BEGIN
 40
1.5
 40
1.5
 40
1.5
 40
1.5
 40
0.18
 40
0.18
309
CELLMARGIN_END
 94
        6
 95
        1
302
GRIDFORMAT
  1
GRIDFORMAT_BEGIN
 90
        0
 91
        1
 62
     0
 92
       -2
340
0
 93
        0
 40
0.045
309
GRIDFORMAT_END
 95
        2
302
GRIDFORMAT
  1
GRIDFORMAT_BEGIN
 90
        0
 91
        1
 62
     0
 92
       -2
340
0
 93
        0
 40
0.045
309
GRIDFORMAT_END
 95
        4
302
GRIDFORMAT
  1
GRIDFORMAT_BEGIN
 90
        0
 91
        1
 62
     0
 92
       -2
340
0
 93
        0
 40
0.045
309
GRIDFORMAT_END
 95
        8
302
GRIDFORMAT
  1
GRIDFORMAT_BEGIN
 90
        0
 91
        1
 62
     0
 92
       -2
340
0
 93
        0
 40
0.045
309
GRIDFORMAT_END
 95
       16
302
GRIDFORMAT
  1
GRIDFORMAT_BEGIN
 90
        0
 91
        1
 62
     0
 92
       -2
340
0
 93
        0
 40
0.045
309
GRIDFORMAT_END
 95
       32
302
GRIDFORMAT
  1
GRIDFORMAT_BEGIN
 90
        0
 91
        1
 62
     0
 92
       -2
340
0
 93
        0
 40
0.045
309
GRIDFORMAT_END
309
TABLEFORMAT_END
  1
CELLSTYLE_BEGIN
 90
        3
 91
        2
300
_DATA
309
CELLSTYLE_END
  0
XRECORD
  5
1457
102
{ACAD_REACTORS
330
13F5
102
}
330
13F5
100
AcDbXrecord
280
     1
102
ACAD_ROUNDTRIP_PRE2007_TABLESTYLE
 90
        4
 91
        0
  1

 92
        4
 93
        0
  2

 94
        4
 95
        0
  3

  0
XRECORD
  5
1466
102
{ACAD_REACTORS
330
1465
102
}
330
1465
100
AcDbXrecord
280
     1
102
RTVSPost2010Prop28
280
     1
102
RTVSPost2010PropOp28
 70
     1
102
RTVSPost2010Prop29
280
     1
102
RTVSPost2010PropOp29
 70
     1
102
RTVSPost2010Prop30
280
     0
102
RTVSPost2010PropOp30
 70
     1
102
RTVSPost2010Prop31
280
     0
102
RTVSPost2010PropOp31
 70
     1
102
RTVSPost2010Prop32
280
     0
102
RTVSPost2010PropOp32
 70
     1
102
RTVSPost2010Prop33
280
     0
102
RTVSPost2010PropOp33
 70
     1
102
RTVSPost2010Prop34
280
     0
102
RTVSPost2010PropOp34
 70
     1
102
RTVSPost2010Prop35
280
     0
102
RTVSPost2010PropOp35
 70
     1
102
RTVSPost2010Prop36
280
     0
102
RTVSPost2010PropOp36
 70
     1
102
RTVSPost2010Prop37
 90
       50
102
RTVSPost2010PropOp37
 70
     1
102
RTVSPost2010Prop38
140
0.0
102
RTVSPost2010PropOp38
 70
     1
102
RTVSPost2010Prop39
140
1.0
102
RTVSPost2010PropOp39
 70
     1
102
RTVSPost2010Prop40
 90
        0
102
RTVSPost2010PropOp40
 70
     1
102
RTVSPost2010Prop41ColorIndex
 90
       18
102
RTVSPost2010Prop41ColorRGB
 90
        0
102
RTVSPost2010PropOp41
 70
     1
102
RTVSPost2010Prop42
 90
       50
102
RTVSPost2010PropOp42
 70
     1
102
RTVSPost2010Prop43
 90
        3
102
RTVSPost2010PropOp43
 70
     1
102
RTVSPost2010Prop44ColorIndex
 90
        5
102
RTVSPost2010Prop44ColorRGB
 90
      255
102
RTVSPost2010PropOp44
 70
     1
102
RTVSPost2010Prop45
280
     0
102
RTVSPost2010PropOp45
 70
     1
102
RTVSPost2010Prop46
 90
       50
102
RTVSPost2010PropOp46
 70
     1
102
RTVSPost2010Prop47
 90
       50
102
RTVSPost2010PropOp47
 70
     1
102
RTVSPost2010Prop48
 90
       50
102
RTVSPost2010PropOp48
 70
     1
102
RTVSPost2010Prop49
280
     0
102
RTVSPost2010PropOp49
 70
     1
102
RTVSPost2010Prop50
 90
       50
102
RTVSPost2010PropOp50
 70
     1
102
RTVSPost2010Prop51ColorIndex
 90
      256
102
RTVSPost2010Prop51ColorRGB
 90
-16777216
102
RTVSPost2010PropOp51
 70
     0
102
RTVSPost2010Prop52
140
1.0
102
RTVSPost2010PropOp52
 70
     0
102
RTVSPost2010Prop53
 90
        2
102
RTVSPost2010PropOp53
 70
     1
102
RTVSPost2010Prop54
  1
strokes_ogs.tif
102
RTVSPost2010PropOp54
 70
     1
102
RTVSPost2010Prop55
280
     0
102
RTVSPost2010PropOp55
 70
     1
102
RTVSPost2010Prop56
140
1.0
102
RTVSPost2010PropOp56
 70
     1
102
RTVSPost2010Prop57
140
1.0
102
RTVSPost2010PropOp57
 70
     1
102
RTVSPropertyOp0
 70
     1
102
RTVSPropertyOp1
 70
     1
102
RTVSPropertyOp2
 70
     1
102
RTVSPropertyOp3
 70
     1
102
RTVSPropertyOp4
 70
     1
102
RTVSPropertyOp5
 70
     1
102
RTVSPropertyOp6
 70
     1
102
RTVSPropertyOp7
 70
     1
102
RTVSPropertyOp8
 70
     1
102
RTVSPropertyOp9
 70
     1
102
RTVSPropertyOp10
 70
     1
102
RTVSPropertyOp11
 70
     1
102
RTVSPropertyOp12
 70
     1
102
RTVSPropertyOp13
 70
     1
102
RTVSPropertyOp14
 70
     1
102
RTVSPropertyOp15
 70
     1
102
RTVSPropertyOp16
 70
     1
102
RTVSPropertyOp17
 70
     1
102
RTVSPropertyOp18
 70
     1
102
RTVSPropertyOp19
 70
     1
102
RTVSPropertyOp20
 70
     1
102
RTVSPropertyOp21
 70
     1
102
RTVSPropertyOp22
 70
     1
102
RTVSPropertyOp23
 70
     1
102
RTVSPropertyOp24
 70
     1
102
RTVSPropertyOp25
 70
     1
102
RTVSPropertyOp26
 70
     1
102
RTVSPropertyOp27
 70
     1
102
RTVSPropertyOp28
 70
     1
102
RTVSPropertyOp29
 70
     1
102
RTVSPropertyOp30
 70
     1
102
RTVSPropertyOp31
 70
     1
102
RTVSPropertyOp32
 70
     1
102
RTVSPropertyOp33
 70
     1
102
RTVSPropertyOp34
 70
     1
102
RTVSPropertyOp35
 70
     1
102
RTVSPropertyOp36
 70
     1
102
RTVSPropertyOp37
 70
     1
102
RTVSPropertyOp38
 70
     1
102
RTVSPropertyOp39
 70
     1
102
RTVSPropertyOp40
 70
     1
102
RTVSPropertyOp41
 70
     1
102
RTVSPropertyOp42
 70
     1
102
RTVSPropertyOp43
 70
     1
102
RTVSPropertyOp44
 70
     1
102
RTVSPropertyOp45
 70
     1
102
RTVSPropertyOp46
 70
     1
102
RTVSPropertyOp47
 70
     1
102
RTVSPropertyOp48
 70
     1
102
RTVSPropertyOp49
 70
     1
102
RTVSPropertyOp50
 70
     1
102
RTVSPropertyOp51
 70
     0
102
RTVSPropertyOp52
 70
     0
102
RTVSPropertyOp53
 70
     1
102
RTVSPropertyOp54
 70
     1
102
RTVSPropertyOp55
 70
     1
102
RTVSPropertyOp56
 70
     1
102
RTVSPropertyOp57
 70
     1
102
RTVSPropertyOp58
 70
     1
102
RTVSPropertyOp59
 70
     1
102
RTVSPropertyOp60
 70
     1
102
RTVSPropertyOp61
 70
     1
102
RTVSPropertyOp62
 70
     1
  0
XRECORD
  5
148E
102
{ACAD_REACTORS
330
148D
102
}
330
148D
100
AcDbXrecord
280
     1
102
RTVSPost2010Prop28
280
     0
102
RTVSPost2010PropOp28
 70
     1
102
RTVSPost2010Prop29
280
     1
102
RTVSPost2010PropOp29
 70
     1
102
RTVSPost2010Prop30
280
     1
102
RTVSPost2010PropOp30
 70
     1
102
RTVSPost2010Prop31
280
     0
102
RTVSPost2010PropOp31
 70
     1
102
RTVSPost2010Prop32
280
     0
102
RTVSPost2010PropOp32
 70
     1
102
RTVSPost2010Prop33
280
     0
102
RTVSPost2010PropOp33
 70
     1
102
RTVSPost2010Prop34
280
     0
102
RTVSPost2010PropOp34
 70
     1
102
RTVSPost2010Prop35
280
     0
102
RTVSPost2010PropOp35
 70
     1
102
RTVSPost2010Prop36
280
     0
102
RTVSPost2010PropOp36
 70
     1
102
RTVSPost2010Prop37
 90
       50
102
RTVSPost2010PropOp37
 70
     1
102
RTVSPost2010Prop38
140
0.0
102
RTVSPost2010PropOp38
 70
     1
102
RTVSPost2010Prop39
140
1.0
102
RTVSPost2010PropOp39
 70
     1
102
RTVSPost2010Prop40
 90
        0
102
RTVSPost2010PropOp40
 70
     1
102
RTVSPost2010Prop41ColorIndex
 90
       18
102
RTVSPost2010Prop41ColorRGB
 90
        0
102
RTVSPost2010PropOp41
 70
     1
102
RTVSPost2010Prop42
 90
       50
102
RTVSPost2010PropOp42
 70
     1
102
RTVSPost2010Prop43
 90
        3
102
RTVSPost2010PropOp43
 70
     1
102
RTVSPost2010Prop44ColorIndex
 90
        5
102
RTVSPost2010Prop44ColorRGB
 90
      255
102
RTVSPost2010PropOp44
 70
     1
102
RTVSPost2010Prop45
280
     0
102
RTVSPost2010PropOp45
 70
     1
102
RTVSPost2010Prop46
 90
       50
102
RTVSPost2010PropOp46
 70
     1
102
RTVSPost2010Prop47
 90
       50
102
RTVSPost2010PropOp47
 70
     1
102
RTVSPost2010Prop48
 90
       50
102
RTVSPost2010PropOp48
 70
     1
102
RTVSPost2010Prop49
280
     0
102
RTVSPost2010PropOp49
 70
     1
102
RTVSPost2010Prop50
 90
       50
102
RTVSPost2010PropOp50
 70
     1
102
RTVSPost2010Prop51ColorIndex
 90
      256
102
RTVSPost2010Prop51ColorRGB
 90
-16777216
102
RTVSPost2010PropOp51
 70
     0
102
RTVSPost2010Prop52
140
1.0
102
RTVSPost2010PropOp52
 70
     0
102
RTVSPost2010Prop53
 90
        2
102
RTVSPost2010PropOp53
 70
     1
102
RTVSPost2010Prop54
  1
strokes_ogs.tif
102
RTVSPost2010PropOp54
 70
     1
102
RTVSPost2010Prop55
280
     0
102
RTVSPost2010PropOp55
 70
     1
102
RTVSPost2010Prop56
140
1.0
102
RTVSPost2010PropOp56
 70
     1
102
RTVSPost2010Prop57
140
1.0
102
RTVSPost2010PropOp57
 70
     1
102
RTVSPropertyOp0
 70
     1
102
RTVSPropertyOp1
 70
     1
102
RTVSPropertyOp2
 70
     1
102
RTVSPropertyOp3
 70
     1
102
RTVSPropertyOp4
 70
     1
102
RTVSPropertyOp5
 70
     1
102
RTVSPropertyOp6
 70
     1
102
RTVSPropertyOp7
 70
     1
102
RTVSPropertyOp8
 70
     1
102
RTVSPropertyOp9
 70
     1
102
RTVSPropertyOp10
 70
     1
102
RTVSPropertyOp11
 70
     1
102
RTVSPropertyOp12
 70
     1
102
RTVSPropertyOp13
 70
     1
102
RTVSPropertyOp14
 70
     1
102
RTVSPropertyOp15
 70
     1
102
RTVSPropertyOp16
 70
     1
102
RTVSPropertyOp17
 70
     1
102
RTVSPropertyOp18
 70
     1
102
RTVSPropertyOp19
 70
     1
102
RTVSPropertyOp20
 70
     1
102
RTVSPropertyOp21
 70
     1
102
RTVSPropertyOp22
 70
     1
102
RTVSPropertyOp23
 70
     1
102
RTVSPropertyOp24
 70
     1
102
RTVSPropertyOp25
 70
     1
102
RTVSPropertyOp26
 70
     1
102
RTVSPropertyOp27
 70
     1
102
RTVSPropertyOp28
 70
     1
102
RTVSPropertyOp29
 70
     1
102
RTVSPropertyOp30
 70
     1
102
RTVSPropertyOp31
 70
     1
102
RTVSPropertyOp32
 70
     1
102
RTVSPropertyOp33
 70
     1
102
RTVSPropertyOp34
 70
     1
102
RTVSPropertyOp35
 70
     1
102
RTVSPropertyOp36
 70
     1
102
RTVSPropertyOp37
 70
     1
102
RTVSPropertyOp38
 70
     1
102
RTVSPropertyOp39
 70
     1
102
RTVSPropertyOp40
 70
     1
102
RTVSPropertyOp41
 70
     1
102
RTVSPropertyOp42
 70
     1
102
RTVSPropertyOp43
 70
     1
102
RTVSPropertyOp44
 70
     1
102
RTVSPropertyOp45
 70
     1
102
RTVSPropertyOp46
 70
     1
102
RTVSPropertyOp47
 70
     1
102
RTVSPropertyOp48
 70
     1
102
RTVSPropertyOp49
 70
     1
102
RTVSPropertyOp50
 70
     1
102
RTVSPropertyOp51
 70
     0
102
RTVSPropertyOp52
 70
     0
102
RTVSPropertyOp53
 70
     1
102
RTVSPropertyOp54
 70
     1
102
RTVSPropertyOp55
 70
     1
102
RTVSPropertyOp56
 70
     1
102
RTVSPropertyOp57
 70
     1
102
RTVSPropertyOp58
 70
     1
102
RTVSPropertyOp59
 70
     1
102
RTVSPropertyOp60
 70
     1
102
RTVSPropertyOp61
 70
     1
102
RTVSPropertyOp62
 70
     1
  0
XRECORD
  5
1464
102
{ACAD_REACTORS
330
1463
102
}
330
1463
100
AcDbXrecord
280
     1
102
RTVSPost2010Prop28
280
     0
102
RTVSPost2010PropOp28
 70
     1
102
RTVSPost2010Prop29
280
     1
102
RTVSPost2010PropOp29
 70
     1
102
RTVSPost2010Prop30
280
     1
102
RTVSPost2010PropOp30
 70
     1
102
RTVSPost2010Prop31
280
     0
102
RTVSPost2010PropOp31
 70
     1
102
RTVSPost2010Prop32
280
     0
102
RTVSPost2010PropOp32
 70
     1
102
RTVSPost2010Prop33
280
     0
102
RTVSPost2010PropOp33
 70
     1
102
RTVSPost2010Prop34
280
     0
102
RTVSPost2010PropOp34
 70
     1
102
RTVSPost2010Prop35
280
     0
102
RTVSPost2010PropOp35
 70
     1
102
RTVSPost2010Prop36
280
     0
102
RTVSPost2010PropOp36
 70
     1
102
RTVSPost2010Prop37
 90
       50
102
RTVSPost2010PropOp37
 70
     1
102
RTVSPost2010Prop38
140
0.0
102
RTVSPost2010PropOp38
 70
     1
102
RTVSPost2010Prop39
140
1.0
102
RTVSPost2010PropOp39
 70
     1
102
RTVSPost2010Prop40
 90
        0
102
RTVSPost2010PropOp40
 70
     1
102
RTVSPost2010Prop41ColorIndex
 90
       18
102
RTVSPost2010Prop41ColorRGB
 90
        0
102
RTVSPost2010PropOp41
 70
     1
102
RTVSPost2010Prop42
 90
       50
102
RTVSPost2010PropOp42
 70
     1
102
RTVSPost2010Prop43
 90
        3
102
RTVSPost2010PropOp43
 70
     1
102
RTVSPost2010Prop44ColorIndex
 90
        5
102
RTVSPost2010Prop44ColorRGB
 90
      255
102
RTVSPost2010PropOp44
 70
     1
102
RTVSPost2010Prop45
280
     0
102
RTVSPost2010PropOp45
 70
     1
102
RTVSPost2010Prop46
 90
       50
102
RTVSPost2010PropOp46
 70
     1
102
RTVSPost2010Prop47
 90
       50
102
RTVSPost2010PropOp47
 70
     1
102
RTVSPost2010Prop48
 90
       50
102
RTVSPost2010PropOp48
 70
     1
102
RTVSPost2010Prop49
280
     0
102
RTVSPost2010PropOp49
 70
     1
102
RTVSPost2010Prop50
 90
       50
102
RTVSPost2010PropOp50
 70
     1
102
RTVSPost2010Prop51ColorIndex
 90
      256
102
RTVSPost2010Prop51ColorRGB
 90
-16777216
102
RTVSPost2010PropOp51
 70
     0
102
RTVSPost2010Prop52
140
1.0
102
RTVSPost2010PropOp52
 70
     0
102
RTVSPost2010Prop53
 90
        2
102
RTVSPost2010PropOp53
 70
     1
102
RTVSPost2010Prop54
  1
strokes_ogs.tif
102
RTVSPost2010PropOp54
 70
     1
102
RTVSPost2010Prop55
280
     0
102
RTVSPost2010PropOp55
 70
     1
102
RTVSPost2010Prop56
140
1.0
102
RTVSPost2010PropOp56
 70
     1
102
RTVSPost2010Prop57
140
1.0
102
RTVSPost2010PropOp57
 70
     1
102
RTVSPropertyOp0
 70
     1
102
RTVSPropertyOp1
 70
     1
102
RTVSPropertyOp2
 70
     1
102
RTVSPropertyOp3
 70
     1
102
RTVSPropertyOp4
 70
     1
102
RTVSPropertyOp5
 70
     1
102
RTVSPropertyOp6
 70
     1
102
RTVSPropertyOp7
 70
     1
102
RTVSPropertyOp8
 70
     1
102
RTVSPropertyOp9
 70
     1
102
RTVSPropertyOp10
 70
     1
102
RTVSPropertyOp11
 70
     1
102
RTVSPropertyOp12
 70
     1
102
RTVSPropertyOp13
 70
     1
102
RTVSPropertyOp14
 70
     1
102
RTVSPropertyOp15
 70
     1
102
RTVSPropertyOp16
 70
     1
102
RTVSPropertyOp17
 70
     1
102
RTVSPropertyOp18
 70
     1
102
RTVSPropertyOp19
 70
     1
102
RTVSPropertyOp20
 70
     1
102
RTVSPropertyOp21
 70
     1
102
RTVSPropertyOp22
 70
     1
102
RTVSPropertyOp23
 70
     1
102
RTVSPropertyOp24
 70
     1
102
RTVSPropertyOp25
 70
     1
102
RTVSPropertyOp26
 70
     1
102
RTVSPropertyOp27
 70
     1
102
RTVSPropertyOp28
 70
     1
102
RTVSPropertyOp29
 70
     1
102
RTVSPropertyOp30
 70
     1
102
RTVSPropertyOp31
 70
     1
102
RTVSPropertyOp32
 70
     1
102
RTVSPropertyOp33
 70
     1
102
RTVSPropertyOp34
 70
     1
102
RTVSPropertyOp35
 70
     1
102
RTVSPropertyOp36
 70
     1
102
RTVSPropertyOp37
 70
     1
102
RTVSPropertyOp38
 70
     1
102
RTVSPropertyOp39
 70
     1
102
RTVSPropertyOp40
 70
     1
102
RTVSPropertyOp41
 70
     1
102
RTVSPropertyOp42
 70
     1
102
RTVSPropertyOp43
 70
     1
102
RTVSPropertyOp44
 70
     1
102
RTVSPropertyOp45
 70
     1
102
RTVSPropertyOp46
 70
     1
102
RTVSPropertyOp47
 70
     1
102
RTVSPropertyOp48
 70
     1
102
RTVSPropertyOp49
 70
     1
102
RTVSPropertyOp50
 70
     1
102
RTVSPropertyOp51
 70
     0
102
RTVSPropertyOp52
 70
     0
102
RTVSPropertyOp53
 70
     1
102
RTVSPropertyOp54
 70
     1
102
RTVSPropertyOp55
 70
     1
102
RTVSPropertyOp56
 70
     1
102
RTVSPropertyOp57
 70
     1
102
RTVSPropertyOp58
 70
     1
102
RTVSPropertyOp59
 70
     1
102
RTVSPropertyOp60
 70
     1
102
RTVSPropertyOp61
 70
     1
102
RTVSPropertyOp62
 70
     1
  0
XRECORD
  5
1472
102
{ACAD_REACTORS
330
1471
102
}
330
1471
100
AcDbXrecord
280
     1
102
RTVSPost2010Prop28
280
     0
102
RTVSPost2010PropOp28
 70
     1
102
RTVSPost2010Prop29
280
     1
102
RTVSPost2010PropOp29
 70
     1
102
RTVSPost2010Prop30
280
     1
102
RTVSPost2010PropOp30
 70
     1
102
RTVSPost2010Prop31
280
     0
102
RTVSPost2010PropOp31
 70
     1
102
RTVSPost2010Prop32
280
     0
102
RTVSPost2010PropOp32
 70
     1
102
RTVSPost2010Prop33
280
     0
102
RTVSPost2010PropOp33
 70
     1
102
RTVSPost2010Prop34
280
     0
102
RTVSPost2010PropOp34
 70
     1
102
RTVSPost2010Prop35
280
     0
102
RTVSPost2010PropOp35
 70
     1
102
RTVSPost2010Prop36
280
     0
102
RTVSPost2010PropOp36
 70
     1
102
RTVSPost2010Prop37
 90
       50
102
RTVSPost2010PropOp37
 70
     1
102
RTVSPost2010Prop38
140
0.0
102
RTVSPost2010PropOp38
 70
     1
102
RTVSPost2010Prop39
140
1.0
102
RTVSPost2010PropOp39
 70
     1
102
RTVSPost2010Prop40
 90
        0
102
RTVSPost2010PropOp40
 70
     1
102
RTVSPost2010Prop41ColorIndex
 90
       18
102
RTVSPost2010Prop41ColorRGB
 90
        0
102
RTVSPost2010PropOp41
 70
     1
102
RTVSPost2010Prop42
 90
       50
102
RTVSPost2010PropOp42
 70
     1
102
RTVSPost2010Prop43
 90
        3
102
RTVSPost2010PropOp43
 70
     1
102
RTVSPost2010Prop44ColorIndex
 90
        5
102
RTVSPost2010Prop44ColorRGB
 90
      255
102
RTVSPost2010PropOp44
 70
     1
102
RTVSPost2010Prop45
280
     0
102
RTVSPost2010PropOp45
 70
     1
102
RTVSPost2010Prop46
 90
       50
102
RTVSPost2010PropOp46
 70
     1
102
RTVSPost2010Prop47
 90
       50
102
RTVSPost2010PropOp47
 70
     1
102
RTVSPost2010Prop48
 90
       50
102
RTVSPost2010PropOp48
 70
     1
102
RTVSPost2010Prop49
280
     0
102
RTVSPost2010PropOp49
 70
     1
102
RTVSPost2010Prop50
 90
       50
102
RTVSPost2010PropOp50
 70
     1
102
RTVSPost2010Prop51ColorIndex
 90
      256
102
RTVSPost2010Prop51ColorRGB
 90
-16777216
102
RTVSPost2010PropOp51
 70
     0
102
RTVSPost2010Prop52
140
1.0
102
RTVSPost2010PropOp52
 70
     0
102
RTVSPost2010Prop53
 90
        2
102
RTVSPost2010PropOp53
 70
     1
102
RTVSPost2010Prop54
  1
strokes_ogs.tif
102
RTVSPost2010PropOp54
 70
     1
102
RTVSPost2010Prop55
280
     0
102
RTVSPost2010PropOp55
 70
     1
102
RTVSPost2010Prop56
140
1.0
102
RTVSPost2010PropOp56
 70
     1
102
RTVSPost2010Prop57
140
1.0
102
RTVSPost2010PropOp57
 70
     1
102
RTVSPropertyOp0
 70
     1
102
RTVSPropertyOp1
 70
     1
102
RTVSPropertyOp2
 70
     1
102
RTVSPropertyOp3
 70
     1
102
RTVSPropertyOp4
 70
     1
102
RTVSPropertyOp5
 70
     1
102
RTVSPropertyOp6
 70
     1
102
RTVSPropertyOp7
 70
     1
102
RTVSPropertyOp8
 70
     1
102
RTVSPropertyOp9
 70
     1
102
RTVSPropertyOp10
 70
     1
102
RTVSPropertyOp11
 70
     1
102
RTVSPropertyOp12
 70
     1
102
RTVSPropertyOp13
 70
     1
102
RTVSPropertyOp14
 70
     1
102
RTVSPropertyOp15
 70
     1
102
RTVSPropertyOp16
 70
     1
102
RTVSPropertyOp17
 70
     1
102
RTVSPropertyOp18
 70
     1
102
RTVSPropertyOp19
 70
     1
102
RTVSPropertyOp20
 70
     1
102
RTVSPropertyOp21
 70
     1
102
RTVSPropertyOp22
 70
     1
102
RTVSPropertyOp23
 70
     1
102
RTVSPropertyOp24
 70
     1
102
RTVSPropertyOp25
 70
     1
102
RTVSPropertyOp26
 70
     1
102
RTVSPropertyOp27
 70
     1
102
RTVSPropertyOp28
 70
     1
102
RTVSPropertyOp29
 70
     1
102
RTVSPropertyOp30
 70
     1
102
RTVSPropertyOp31
 70
     1
102
RTVSPropertyOp32
 70
     1
102
RTVSPropertyOp33
 70
     1
102
RTVSPropertyOp34
 70
     1
102
RTVSPropertyOp35
 70
     1
102
RTVSPropertyOp36
 70
     1
102
RTVSPropertyOp37
 70
     1
102
RTVSPropertyOp38
 70
     1
102
RTVSPropertyOp39
 70
     1
102
RTVSPropertyOp40
 70
     1
102
RTVSPropertyOp41
 70
     1
102
RTVSPropertyOp42
 70
     1
102
RTVSPropertyOp43
 70
     1
102
RTVSPropertyOp44
 70
     1
102
RTVSPropertyOp45
 70
     1
102
RTVSPropertyOp46
 70
     1
102
RTVSPropertyOp47
 70
     1
102
RTVSPropertyOp48
 70
     1
102
RTVSPropertyOp49
 70
     1
102
RTVSPropertyOp50
 70
     1
102
RTVSPropertyOp51
 70
     0
102
RTVSPropertyOp52
 70
     0
102
RTVSPropertyOp53
 70
     1
102
RTVSPropertyOp54
 70
     1
102
RTVSPropertyOp55
 70
     1
102
RTVSPropertyOp56
 70
     1
102
RTVSPropertyOp57
 70
     1
102
RTVSPropertyOp58
 70
     1
102
RTVSPropertyOp59
 70
     1
102
RTVSPropertyOp60
 70
     1
102
RTVSPropertyOp61
 70
     1
102
RTVSPropertyOp62
 70
     1
  0
XRECORD
  5
147A
102
{ACAD_REACTORS
330
1479
102
}
330
1479
100
AcDbXrecord
280
     1
102
RTVSPost2010Prop28
280
     0
102
RTVSPost2010PropOp28
 70
     1
102
RTVSPost2010Prop29
280
     1
102
RTVSPost2010PropOp29
 70
     1
102
RTVSPost2010Prop30
280
     1
102
RTVSPost2010PropOp30
 70
     1
102
RTVSPost2010Prop31
280
     0
102
RTVSPost2010PropOp31
 70
     1
102
RTVSPost2010Prop32
280
     0
102
RTVSPost2010PropOp32
 70
     1
102
RTVSPost2010Prop33
280
     0
102
RTVSPost2010PropOp33
 70
     1
102
RTVSPost2010Prop34
280
     0
102
RTVSPost2010PropOp34
 70
     1
102
RTVSPost2010Prop35
280
     0
102
RTVSPost2010PropOp35
 70
     1
102
RTVSPost2010Prop36
280
     0
102
RTVSPost2010PropOp36
 70
     1
102
RTVSPost2010Prop37
 90
       50
102
RTVSPost2010PropOp37
 70
     1
102
RTVSPost2010Prop38
140
0.0
102
RTVSPost2010PropOp38
 70
     1
102
RTVSPost2010Prop39
140
1.0
102
RTVSPost2010PropOp39
 70
     1
102
RTVSPost2010Prop40
 90
        0
102
RTVSPost2010PropOp40
 70
     1
102
RTVSPost2010Prop41ColorIndex
 90
       18
102
RTVSPost2010Prop41ColorRGB
 90
        0
102
RTVSPost2010PropOp41
 70
     1
102
RTVSPost2010Prop42
 90
       50
102
RTVSPost2010PropOp42
 70
     1
102
RTVSPost2010Prop43
 90
        3
102
RTVSPost2010PropOp43
 70
     1
102
RTVSPost2010Prop44ColorIndex
 90
        5
102
RTVSPost2010Prop44ColorRGB
 90
      255
102
RTVSPost2010PropOp44
 70
     1
102
RTVSPost2010Prop45
280
     0
102
RTVSPost2010PropOp45
 70
     1
102
RTVSPost2010Prop46
 90
       50
102
RTVSPost2010PropOp46
 70
     1
102
RTVSPost2010Prop47
 90
       50
102
RTVSPost2010PropOp47
 70
     1
102
RTVSPost2010Prop48
 90
       50
102
RTVSPost2010PropOp48
 70
     1
102
RTVSPost2010Prop49
280
     0
102
RTVSPost2010PropOp49
 70
     1
102
RTVSPost2010Prop50
 90
       50
102
RTVSPost2010PropOp50
 70
     1
102
RTVSPost2010Prop51ColorIndex
 90
      256
102
RTVSPost2010Prop51ColorRGB
 90
-16777216
102
RTVSPost2010PropOp51
 70
     0
102
RTVSPost2010Prop52
140
1.0
102
RTVSPost2010PropOp52
 70
     0
102
RTVSPost2010Prop53
 90
        2
102
RTVSPost2010PropOp53
 70
     1
102
RTVSPost2010Prop54
  1
strokes_ogs.tif
102
RTVSPost2010PropOp54
 70
     1
102
RTVSPost2010Prop55
280
     0
102
RTVSPost2010PropOp55
 70
     1
102
RTVSPost2010Prop56
140
1.0
102
RTVSPost2010PropOp56
 70
     1
102
RTVSPost2010Prop57
140
1.0
102
RTVSPost2010PropOp57
 70
     1
102
RTVSPropertyOp0
 70
     1
102
RTVSPropertyOp1
 70
     1
102
RTVSPropertyOp2
 70
     1
102
RTVSPropertyOp3
 70
     1
102
RTVSPropertyOp4
 70
     1
102
RTVSPropertyOp5
 70
     1
102
RTVSPropertyOp6
 70
     1
102
RTVSPropertyOp7
 70
     1
102
RTVSPropertyOp8
 70
     1
102
RTVSPropertyOp9
 70
     1
102
RTVSPropertyOp10
 70
     1
102
RTVSPropertyOp11
 70
     1
102
RTVSPropertyOp12
 70
     1
102
RTVSPropertyOp13
 70
     1
102
RTVSPropertyOp14
 70
     1
102
RTVSPropertyOp15
 70
     1
102
RTVSPropertyOp16
 70
     1
102
RTVSPropertyOp17
 70
     1
102
RTVSPropertyOp18
 70
     1
102
RTVSPropertyOp19
 70
     1
102
RTVSPropertyOp20
 70
     1
102
RTVSPropertyOp21
 70
     1
102
RTVSPropertyOp22
 70
     1
102
RTVSPropertyOp23
 70
     1
102
RTVSPropertyOp24
 70
     1
102
RTVSPropertyOp25
 70
     1
102
RTVSPropertyOp26
 70
     1
102
RTVSPropertyOp27
 70
     1
102
RTVSPropertyOp28
 70
     1
102
RTVSPropertyOp29
 70
     1
102
RTVSPropertyOp30
 70
     1
102
RTVSPropertyOp31
 70
     1
102
RTVSPropertyOp32
 70
     1
102
RTVSPropertyOp33
 70
     1
102
RTVSPropertyOp34
 70
     1
102
RTVSPropertyOp35
 70
     1
102
RTVSPropertyOp36
 70
     1
102
RTVSPropertyOp37
 70
     1
102
RTVSPropertyOp38
 70
     1
102
RTVSPropertyOp39
 70
     1
102
RTVSPropertyOp40
 70
     1
102
RTVSPropertyOp41
 70
     1
102
RTVSPropertyOp42
 70
     1
102
RTVSPropertyOp43
 70
     1
102
RTVSPropertyOp44
 70
     1
102
RTVSPropertyOp45
 70
     1
102
RTVSPropertyOp46
 70
     1
102
RTVSPropertyOp47
 70
     1
102
RTVSPropertyOp48
 70
     1
102
RTVSPropertyOp49
 70
     1
102
RTVSPropertyOp50
 70
     1
102
RTVSPropertyOp51
 70
     0
102
RTVSPropertyOp52
 70
     0
102
RTVSPropertyOp53
 70
     1
102
RTVSPropertyOp54
 70
     1
102
RTVSPropertyOp55
 70
     1
102
RTVSPropertyOp56
 70
     1
102
RTVSPropertyOp57
 70
     1
102
RTVSPropertyOp58
 70
     1
102
RTVSPropertyOp59
 70
     1
102
RTVSPropertyOp60
 70
     1
102
RTVSPropertyOp61
 70
     1
102
RTVSPropertyOp62
 70
     1
  0
XRECORD
  5
146C
102
{ACAD_REACTORS
330
146B
102
}
330
146B
100
AcDbXrecord
280
     1
102
RTVSPost2010Prop28
280
     0
102
RTVSPost2010PropOp28
 70
     1
102
RTVSPost2010Prop29
280
     1
102
RTVSPost2010PropOp29
 70
     1
102
RTVSPost2010Prop30
280
     1
102
RTVSPost2010PropOp30
 70
     1
102
RTVSPost2010Prop31
280
     0
102
RTVSPost2010PropOp31
 70
     1
102
RTVSPost2010Prop32
280
     0
102
RTVSPost2010PropOp32
 70
     1
102
RTVSPost2010Prop33
280
     0
102
RTVSPost2010PropOp33
 70
     1
102
RTVSPost2010Prop34
280
     0
102
RTVSPost2010PropOp34
 70
     1
102
RTVSPost2010Prop35
280
     0
102
RTVSPost2010PropOp35
 70
     1
102
RTVSPost2010Prop36
280
     0
102
RTVSPost2010PropOp36
 70
     1
102
RTVSPost2010Prop37
 90
       50
102
RTVSPost2010PropOp37
 70
     1
102
RTVSPost2010Prop38
140
0.0
102
RTVSPost2010PropOp38
 70
     1
102
RTVSPost2010Prop39
140
1.0
102
RTVSPost2010PropOp39
 70
     1
102
RTVSPost2010Prop40
 90
        0
102
RTVSPost2010PropOp40
 70
     1
102
RTVSPost2010Prop41ColorIndex
 90
       18
102
RTVSPost2010Prop41ColorRGB
 90
        0
102
RTVSPost2010PropOp41
 70
     1
102
RTVSPost2010Prop42
 90
       50
102
RTVSPost2010PropOp42
 70
     1
102
RTVSPost2010Prop43
 90
        3
102
RTVSPost2010PropOp43
 70
     1
102
RTVSPost2010Prop44ColorIndex
 90
        5
102
RTVSPost2010Prop44ColorRGB
 90
      255
102
RTVSPost2010PropOp44
 70
     1
102
RTVSPost2010Prop45
280
     0
102
RTVSPost2010PropOp45
 70
     1
102
RTVSPost2010Prop46
 90
       50
102
RTVSPost2010PropOp46
 70
     1
102
RTVSPost2010Prop47
 90
       50
102
RTVSPost2010PropOp47
 70
     1
102
RTVSPost2010Prop48
 90
       50
102
RTVSPost2010PropOp48
 70
     1
102
RTVSPost2010Prop49
280
     0
102
RTVSPost2010PropOp49
 70
     1
102
RTVSPost2010Prop50
 90
       50
102
RTVSPost2010PropOp50
 70
     1
102
RTVSPost2010Prop51ColorIndex
 90
      256
102
RTVSPost2010Prop51ColorRGB
 90
-16777216
102
RTVSPost2010PropOp51
 70
     0
102
RTVSPost2010Prop52
140
1.0
102
RTVSPost2010PropOp52
 70
     0
102
RTVSPost2010Prop53
 90
        2
102
RTVSPost2010PropOp53
 70
     1
102
RTVSPost2010Prop54
  1
strokes_ogs.tif
102
RTVSPost2010PropOp54
 70
     1
102
RTVSPost2010Prop55
280
     0
102
RTVSPost2010PropOp55
 70
     1
102
RTVSPost2010Prop56
140
1.0
102
RTVSPost2010PropOp56
 70
     1
102
RTVSPost2010Prop57
140
1.0
102
RTVSPost2010PropOp57
 70
     1
102
RTVSPropertyOp0
 70
     1
102
RTVSPropertyOp1
 70
     1
102
RTVSPropertyOp2
 70
     1
102
RTVSPropertyOp3
 70
     1
102
RTVSPropertyOp4
 70
     1
102
RTVSPropertyOp5
 70
     1
102
RTVSPropertyOp6
 70
     1
102
RTVSPropertyOp7
 70
     1
102
RTVSPropertyOp8
 70
     1
102
RTVSPropertyOp9
 70
     1
102
RTVSPropertyOp10
 70
     1
102
RTVSPropertyOp11
 70
     1
102
RTVSPropertyOp12
 70
     1
102
RTVSPropertyOp13
 70
     1
102
RTVSPropertyOp14
 70
     1
102
RTVSPropertyOp15
 70
     1
102
RTVSPropertyOp16
 70
     1
102
RTVSPropertyOp17
 70
     1
102
RTVSPropertyOp18
 70
     1
102
RTVSPropertyOp19
 70
     1
102
RTVSPropertyOp20
 70
     1
102
RTVSPropertyOp21
 70
     1
102
RTVSPropertyOp22
 70
     1
102
RTVSPropertyOp23
 70
     1
102
RTVSPropertyOp24
 70
     1
102
RTVSPropertyOp25
 70
     1
102
RTVSPropertyOp26
 70
     1
102
RTVSPropertyOp27
 70
     1
102
RTVSPropertyOp28
 70
     1
102
RTVSPropertyOp29
 70
     1
102
RTVSPropertyOp30
 70
     1
102
RTVSPropertyOp31
 70
     1
102
RTVSPropertyOp32
 70
     1
102
RTVSPropertyOp33
 70
     1
102
RTVSPropertyOp34
 70
     1
102
RTVSPropertyOp35
 70
     1
102
RTVSPropertyOp36
 70
     1
102
RTVSPropertyOp37
 70
     1
102
RTVSPropertyOp38
 70
     1
102
RTVSPropertyOp39
 70
     1
102
RTVSPropertyOp40
 70
     1
102
RTVSPropertyOp41
 70
     1
102
RTVSPropertyOp42
 70
     1
102
RTVSPropertyOp43
 70
     1
102
RTVSPropertyOp44
 70
     1
102
RTVSPropertyOp45
 70
     1
102
RTVSPropertyOp46
 70
     1
102
RTVSPropertyOp47
 70
     1
102
RTVSPropertyOp48
 70
     1
102
RTVSPropertyOp49
 70
     1
102
RTVSPropertyOp50
 70
     1
102
RTVSPropertyOp51
 70
     0
102
RTVSPropertyOp52
 70
     0
102
RTVSPropertyOp53
 70
     1
102
RTVSPropertyOp54
 70
     1
102
RTVSPropertyOp55
 70
     1
102
RTVSPropertyOp56
 70
     1
102
RTVSPropertyOp57
 70
     1
102
RTVSPropertyOp58
 70
     1
102
RTVSPropertyOp59
 70
     1
102
RTVSPropertyOp60
 70
     1
102
RTVSPropertyOp61
 70
     1
102
RTVSPropertyOp62
 70
     1
  0
XRECORD
  5
1470
102
{ACAD_REACTORS
330
146F
102
}
330
146F
100
AcDbXrecord
280
     1
102
RTVSPost2010Prop28
280
     0
102
RTVSPost2010PropOp28
 70
     1
102
RTVSPost2010Prop29
280
     1
102
RTVSPost2010PropOp29
 70
     1
102
RTVSPost2010Prop30
280
     1
102
RTVSPost2010PropOp30
 70
     1
102
RTVSPost2010Prop31
280
     0
102
RTVSPost2010PropOp31
 70
     1
102
RTVSPost2010Prop32
280
     0
102
RTVSPost2010PropOp32
 70
     1
102
RTVSPost2010Prop33
280
     0
102
RTVSPost2010PropOp33
 70
     1
102
RTVSPost2010Prop34
280
     0
102
RTVSPost2010PropOp34
 70
     1
102
RTVSPost2010Prop35
280
     0
102
RTVSPost2010PropOp35
 70
     1
102
RTVSPost2010Prop36
280
     0
102
RTVSPost2010PropOp36
 70
     1
102
RTVSPost2010Prop37
 90
       50
102
RTVSPost2010PropOp37
 70
     1
102
RTVSPost2010Prop38
140
0.0
102
RTVSPost2010PropOp38
 70
     1
102
RTVSPost2010Prop39
140
1.0
102
RTVSPost2010PropOp39
 70
     1
102
RTVSPost2010Prop40
 90
        0
102
RTVSPost2010PropOp40
 70
     1
102
RTVSPost2010Prop41ColorIndex
 90
       18
102
RTVSPost2010Prop41ColorRGB
 90
        0
102
RTVSPost2010PropOp41
 70
     1
102
RTVSPost2010Prop42
 90
       50
102
RTVSPost2010PropOp42
 70
     1
102
RTVSPost2010Prop43
 90
        3
102
RTVSPost2010PropOp43
 70
     1
102
RTVSPost2010Prop44ColorIndex
 90
        5
102
RTVSPost2010Prop44ColorRGB
 90
      255
102
RTVSPost2010PropOp44
 70
     1
102
RTVSPost2010Prop45
280
     0
102
RTVSPost2010PropOp45
 70
     1
102
RTVSPost2010Prop46
 90
       50
102
RTVSPost2010PropOp46
 70
     1
102
RTVSPost2010Prop47
 90
       50
102
RTVSPost2010PropOp47
 70
     1
102
RTVSPost2010Prop48
 90
       50
102
RTVSPost2010PropOp48
 70
     1
102
RTVSPost2010Prop49
280
     0
102
RTVSPost2010PropOp49
 70
     1
102
RTVSPost2010Prop50
 90
       50
102
RTVSPost2010PropOp50
 70
     1
102
RTVSPost2010Prop51ColorIndex
 90
      256
102
RTVSPost2010Prop51ColorRGB
 90
-16777216
102
RTVSPost2010PropOp51
 70
     0
102
RTVSPost2010Prop52
140
1.0
102
RTVSPost2010PropOp52
 70
     0
102
RTVSPost2010Prop53
 90
        2
102
RTVSPost2010PropOp53
 70
     1
102
RTVSPost2010Prop54
  1
strokes_ogs.tif
102
RTVSPost2010PropOp54
 70
     1
102
RTVSPost2010Prop55
280
     0
102
RTVSPost2010PropOp55
 70
     1
102
RTVSPost2010Prop56
140
1.0
102
RTVSPost2010PropOp56
 70
     1
102
RTVSPost2010Prop57
140
1.0
102
RTVSPost2010PropOp57
 70
     1
102
RTVSPropertyOp0
 70
     1
102
RTVSPropertyOp1
 70
     1
102
RTVSPropertyOp2
 70
     1
102
RTVSPropertyOp3
 70
     1
102
RTVSPropertyOp4
 70
     1
102
RTVSPropertyOp5
 70
     1
102
RTVSPropertyOp6
 70
     1
102
RTVSPropertyOp7
 70
     1
102
RTVSPropertyOp8
 70
     1
102
RTVSPropertyOp9
 70
     1
102
RTVSPropertyOp10
 70
     1
102
RTVSPropertyOp11
 70
     1
102
RTVSPropertyOp12
 70
     1
102
RTVSPropertyOp13
 70
     1
102
RTVSPropertyOp14
 70
     1
102
RTVSPropertyOp15
 70
     1
102
RTVSPropertyOp16
 70
     1
102
RTVSPropertyOp17
 70
     1
102
RTVSPropertyOp18
 70
     1
102
RTVSPropertyOp19
 70
     1
102
RTVSPropertyOp20
 70
     1
102
RTVSPropertyOp21
 70
     1
102
RTVSPropertyOp22
 70
     1
102
RTVSPropertyOp23
 70
     1
102
RTVSPropertyOp24
 70
     1
102
RTVSPropertyOp25
 70
     1
102
RTVSPropertyOp26
 70
     1
102
RTVSPropertyOp27
 70
     1
102
RTVSPropertyOp28
 70
     1
102
RTVSPropertyOp29
 70
     1
102
RTVSPropertyOp30
 70
     1
102
RTVSPropertyOp31
 70
     1
102
RTVSPropertyOp32
 70
     1
102
RTVSPropertyOp33
 70
     1
102
RTVSPropertyOp34
 70
     1
102
RTVSPropertyOp35
 70
     1
102
RTVSPropertyOp36
 70
     1
102
RTVSPropertyOp37
 70
     1
102
RTVSPropertyOp38
 70
     1
102
RTVSPropertyOp39
 70
     1
102
RTVSPropertyOp40
 70
     1
102
RTVSPropertyOp41
 70
     1
102
RTVSPropertyOp42
 70
     1
102
RTVSPropertyOp43
 70
     1
102
RTVSPropertyOp44
 70
     1
102
RTVSPropertyOp45
 70
     1
102
RTVSPropertyOp46
 70
     1
102
RTVSPropertyOp47
 70
     1
102
RTVSPropertyOp48
 70
     1
102
RTVSPropertyOp49
 70
     1
102
RTVSPropertyOp50
 70
     1
102
RTVSPropertyOp51
 70
     0
102
RTVSPropertyOp52
 70
     0
102
RTVSPropertyOp53
 70
     1
102
RTVSPropertyOp54
 70
     1
102
RTVSPropertyOp55
 70
     1
102
RTVSPropertyOp56
 70
     1
102
RTVSPropertyOp57
 70
     1
102
RTVSPropertyOp58
 70
     1
102
RTVSPropertyOp59
 70
     1
102
RTVSPropertyOp60
 70
     1
102
RTVSPropertyOp61
 70
     1
102
RTVSPropertyOp62
 70
     1
  0
XRECORD
  5
148A
102
{ACAD_REACTORS
330
1489
102
}
330
1489
100
AcDbXrecord
280
     1
102
RTVSPost2010Prop28
280
     0
102
RTVSPost2010PropOp28
 70
     0
102
RTVSPost2010Prop29
280
     1
102
RTVSPost2010PropOp29
 70
     0
102
RTVSPost2010Prop30
280
     1
102
RTVSPost2010PropOp30
 70
     0
102
RTVSPost2010Prop31
280
     0
102
RTVSPost2010PropOp31
 70
     0
102
RTVSPost2010Prop32
280
     0
102
RTVSPost2010PropOp32
 70
     0
102
RTVSPost2010Prop33
280
     0
102
RTVSPost2010PropOp33
 70
     0
102
RTVSPost2010Prop34
280
     0
102
RTVSPost2010PropOp34
 70
     0
102
RTVSPost2010Prop35
280
     0
102
RTVSPost2010PropOp35
 70
     0
102
RTVSPost2010Prop36
280
     0
102
RTVSPost2010PropOp36
 70
     0
102
RTVSPost2010Prop37
 90
       50
102
RTVSPost2010PropOp37
 70
     0
102
RTVSPost2010Prop38
140
0.0
102
RTVSPost2010PropOp38
 70
     0
102
RTVSPost2010Prop39
140
1.0
102
RTVSPost2010PropOp39
 70
     0
102
RTVSPost2010Prop40
 90
        0
102
RTVSPost2010PropOp40
 70
     0
102
RTVSPost2010Prop41ColorIndex
 90
       18
102
RTVSPost2010Prop41ColorRGB
 90
        0
102
RTVSPost2010PropOp41
 70
     0
102
RTVSPost2010Prop42
 90
       50
102
RTVSPost2010PropOp42
 70
     0
102
RTVSPost2010Prop43
 90
        3
102
RTVSPost2010PropOp43
 70
     0
102
RTVSPost2010Prop44ColorIndex
 90
        5
102
RTVSPost2010Prop44ColorRGB
 90
      255
102
RTVSPost2010PropOp44
 70
     0
102
RTVSPost2010Prop45
280
     0
102
RTVSPost2010PropOp45
 70
     0
102
RTVSPost2010Prop46
 90
       50
102
RTVSPost2010PropOp46
 70
     0
102
RTVSPost2010Prop47
 90
       50
102
RTVSPost2010PropOp47
 70
     0
102
RTVSPost2010Prop48
 90
       50
102
RTVSPost2010PropOp48
 70
     0
102
RTVSPost2010Prop49
280
     0
102
RTVSPost2010PropOp49
 70
     0
102
RTVSPost2010Prop50
 90
       50
102
RTVSPost2010PropOp50
 70
     0
102
RTVSPost2010Prop51ColorIndex
 90
      256
102
RTVSPost2010Prop51ColorRGB
 90
-16777216
102
RTVSPost2010PropOp51
 70
     0
102
RTVSPost2010Prop52
140
1.0
102
RTVSPost2010PropOp52
 70
     0
102
RTVSPost2010Prop53
 90
        2
102
RTVSPost2010PropOp53
 70
     0
102
RTVSPost2010Prop54
  1
strokes_ogs.tif
102
RTVSPost2010PropOp54
 70
     0
102
RTVSPost2010Prop55
280
     0
102
RTVSPost2010PropOp55
 70
     0
102
RTVSPost2010Prop56
140
1.0
102
RTVSPost2010PropOp56
 70
     0
102
RTVSPost2010Prop57
140
1.0
102
RTVSPost2010PropOp57
 70
     0
102
RTVSPropertyOp0
 70
     0
102
RTVSPropertyOp1
 70
     0
102
RTVSPropertyOp2
 70
     0
102
RTVSPropertyOp3
 70
     0
102
RTVSPropertyOp4
 70
     0
102
RTVSPropertyOp5
 70
     0
102
RTVSPropertyOp6
 70
     0
102
RTVSPropertyOp7
 70
     0
102
RTVSPropertyOp8
 70
     0
102
RTVSPropertyOp9
 70
     0
102
RTVSPropertyOp10
 70
     0
102
RTVSPropertyOp11
 70
     0
102
RTVSPropertyOp12
 70
     0
102
RTVSPropertyOp13
 70
     0
102
RTVSPropertyOp14
 70
     2
102
RTVSPropertyOp15
 70
     0
102
RTVSPropertyOp16
 70
     0
102
RTVSPropertyOp17
 70
     0
102
RTVSPropertyOp18
 70
     0
102
RTVSPropertyOp19
 70
     0
102
RTVSPropertyOp20
 70
     0
102
RTVSPropertyOp21
 70
     0
102
RTVSPropertyOp22
 70
     0
102
RTVSPropertyOp23
 70
     0
102
RTVSPropertyOp24
 70
     0
102
RTVSPropertyOp25
 70
     0
102
RTVSPropertyOp26
 70
     0
102
RTVSPropertyOp27
 70
     0
102
RTVSPropertyOp28
 70
     0
102
RTVSPropertyOp29
 70
     0
102
RTVSPropertyOp30
 70
     0
102
RTVSPropertyOp31
 70
     0
102
RTVSPropertyOp32
 70
     0
102
RTVSPropertyOp33
 70
     0
102
RTVSPropertyOp34
 70
     0
102
RTVSPropertyOp35
 70
     0
102
RTVSPropertyOp36
 70
     0
102
RTVSPropertyOp37
 70
     0
102
RTVSPropertyOp38
 70
     0
102
RTVSPropertyOp39
 70
     0
102
RTVSPropertyOp40
 70
     0
102
RTVSPropertyOp41
 70
     0
102
RTVSPropertyOp42
 70
     0
102
RTVSPropertyOp43
 70
     0
102
RTVSPropertyOp44
 70
     0
102
RTVSPropertyOp45
 70
     0
102
RTVSPropertyOp46
 70
     0
102
RTVSPropertyOp47
 70
     0
102
RTVSPropertyOp48
 70
     0
102
RTVSPropertyOp49
 70
     0
102
RTVSPropertyOp50
 70
     0
102
RTVSPropertyOp51
 70
     0
102
RTVSPropertyOp52
 70
     0
102
RTVSPropertyOp53
 70
     0
102
RTVSPropertyOp54
 70
     0
102
RTVSPropertyOp55
 70
     0
102
RTVSPropertyOp56
 70
     0
102
RTVSPropertyOp57
 70
     0
102
RTVSPropertyOp58
 70
     0
102
RTVSPropertyOp59
 70
     0
102
RTVSPropertyOp60
 70
     0
102
RTVSPropertyOp61
 70
     0
102
RTVSPropertyOp62
 70
     0
  0
XRECORD
  5
1478
102
{ACAD_REACTORS
330
1477
102
}
330
1477
100
AcDbXrecord
280
     1
102
RTVSPost2010Prop28
280
     0
102
RTVSPost2010PropOp28
 70
     1
102
RTVSPost2010Prop29
280
     1
102
RTVSPost2010PropOp29
 70
     1
102
RTVSPost2010Prop30
280
     1
102
RTVSPost2010PropOp30
 70
     1
102
RTVSPost2010Prop31
280
     0
102
RTVSPost2010PropOp31
 70
     1
102
RTVSPost2010Prop32
280
     0
102
RTVSPost2010PropOp32
 70
     1
102
RTVSPost2010Prop33
280
     0
102
RTVSPost2010PropOp33
 70
     1
102
RTVSPost2010Prop34
280
     0
102
RTVSPost2010PropOp34
 70
     1
102
RTVSPost2010Prop35
280
     0
102
RTVSPost2010PropOp35
 70
     1
102
RTVSPost2010Prop36
280
     0
102
RTVSPost2010PropOp36
 70
     1
102
RTVSPost2010Prop37
 90
       50
102
RTVSPost2010PropOp37
 70
     1
102
RTVSPost2010Prop38
140
0.0
102
RTVSPost2010PropOp38
 70
     1
102
RTVSPost2010Prop39
140
1.0
102
RTVSPost2010PropOp39
 70
     1
102
RTVSPost2010Prop40
 90
        0
102
RTVSPost2010PropOp40
 70
     1
102
RTVSPost2010Prop41ColorIndex
 90
       18
102
RTVSPost2010Prop41ColorRGB
 90
        0
102
RTVSPost2010PropOp41
 70
     1
102
RTVSPost2010Prop42
 90
       50
102
RTVSPost2010PropOp42
 70
     1
102
RTVSPost2010Prop43
 90
        3
102
RTVSPost2010PropOp43
 70
     1
102
RTVSPost2010Prop44ColorIndex
 90
        5
102
RTVSPost2010Prop44ColorRGB
 90
      255
102
RTVSPost2010PropOp44
 70
     1
102
RTVSPost2010Prop45
280
     0
102
RTVSPost2010PropOp45
 70
     1
102
RTVSPost2010Prop46
 90
       50
102
RTVSPost2010PropOp46
 70
     1
102
RTVSPost2010Prop47
 90
       50
102
RTVSPost2010PropOp47
 70
     1
102
RTVSPost2010Prop48
 90
       50
102
RTVSPost2010PropOp48
 70
     1
102
RTVSPost2010Prop49
280
     0
102
RTVSPost2010PropOp49
 70
     1
102
RTVSPost2010Prop50
 90
       50
102
RTVSPost2010PropOp50
 70
     1
102
RTVSPost2010Prop51ColorIndex
 90
      256
102
RTVSPost2010Prop51ColorRGB
 90
-16777216
102
RTVSPost2010PropOp51
 70
     0
102
RTVSPost2010Prop52
140
1.0
102
RTVSPost2010PropOp52
 70
     0
102
RTVSPost2010Prop53
 90
        2
102
RTVSPost2010PropOp53
 70
     1
102
RTVSPost2010Prop54
  1
strokes_ogs.tif
102
RTVSPost2010PropOp54
 70
     1
102
RTVSPost2010Prop55
280
     0
102
RTVSPost2010PropOp55
 70
     1
102
RTVSPost2010Prop56
140
1.0
102
RTVSPost2010PropOp56
 70
     1
102
RTVSPost2010Prop57
140
1.0
102
RTVSPost2010PropOp57
 70
     1
102
RTVSPropertyOp0
 70
     1
102
RTVSPropertyOp1
 70
     1
102
RTVSPropertyOp2
 70
     1
102
RTVSPropertyOp3
 70
     1
102
RTVSPropertyOp4
 70
     1
102
RTVSPropertyOp5
 70
     1
102
RTVSPropertyOp6
 70
     1
102
RTVSPropertyOp7
 70
     1
102
RTVSPropertyOp8
 70
     1
102
RTVSPropertyOp9
 70
     1
102
RTVSPropertyOp10
 70
     1
102
RTVSPropertyOp11
 70
     1
102
RTVSPropertyOp12
 70
     1
102
RTVSPropertyOp13
 70
     1
102
RTVSPropertyOp14
 70
     1
102
RTVSPropertyOp15
 70
     1
102
RTVSPropertyOp16
 70
     1
102
RTVSPropertyOp17
 70
     1
102
RTVSPropertyOp18
 70
     1
102
RTVSPropertyOp19
 70
     1
102
RTVSPropertyOp20
 70
     1
102
RTVSPropertyOp21
 70
     1
102
RTVSPropertyOp22
 70
     1
102
RTVSPropertyOp23
 70
     1
102
RTVSPropertyOp24
 70
     1
102
RTVSPropertyOp25
 70
     1
102
RTVSPropertyOp26
 70
     1
102
RTVSPropertyOp27
 70
     1
102
RTVSPropertyOp28
 70
     1
102
RTVSPropertyOp29
 70
     1
102
RTVSPropertyOp30
 70
     1
102
RTVSPropertyOp31
 70
     1
102
RTVSPropertyOp32
 70
     1
102
RTVSPropertyOp33
 70
     1
102
RTVSPropertyOp34
 70
     1
102
RTVSPropertyOp35
 70
     1
102
RTVSPropertyOp36
 70
     1
102
RTVSPropertyOp37
 70
     1
102
RTVSPropertyOp38
 70
     1
102
RTVSPropertyOp39
 70
     1
102
RTVSPropertyOp40
 70
     1
102
RTVSPropertyOp41
 70
     1
102
RTVSPropertyOp42
 70
     1
102
RTVSPropertyOp43
 70
     1
102
RTVSPropertyOp44
 70
     1
102
RTVSPropertyOp45
 70
     1
102
RTVSPropertyOp46
 70
     1
102
RTVSPropertyOp47
 70
     1
102
RTVSPropertyOp48
 70
     1
102
RTVSPropertyOp49
 70
     1
102
RTVSPropertyOp50
 70
     1
102
RTVSPropertyOp51
 70
     0
102
RTVSPropertyOp52
 70
     0
102
RTVSPropertyOp53
 70
     1
102
RTVSPropertyOp54
 70
     1
102
RTVSPropertyOp55
 70
     1
102
RTVSPropertyOp56
 70
     1
102
RTVSPropertyOp57
 70
     1
102
RTVSPropertyOp58
 70
     1
102
RTVSPropertyOp59
 70
     1
102
RTVSPropertyOp60
 70
     1
102
RTVSPropertyOp61
 70
     1
102
RTVSPropertyOp62
 70
     1
  0
XRECORD
  5
145C
102
{ACAD_REACTORS
330
145B
102
}
330
145B
100
AcDbXrecord
280
     1
102
RTVSPost2010Prop28
280
     0
102
RTVSPost2010PropOp28
 70
     1
102
RTVSPost2010Prop29
280
     1
102
RTVSPost2010PropOp29
 70
     1
102
RTVSPost2010Prop30
280
     1
102
RTVSPost2010PropOp30
 70
     1
102
RTVSPost2010Prop31
280
     0
102
RTVSPost2010PropOp31
 70
     1
102
RTVSPost2010Prop32
280
     0
102
RTVSPost2010PropOp32
 70
     1
102
RTVSPost2010Prop33
280
     0
102
RTVSPost2010PropOp33
 70
     1
102
RTVSPost2010Prop34
280
     0
102
RTVSPost2010PropOp34
 70
     1
102
RTVSPost2010Prop35
280
     0
102
RTVSPost2010PropOp35
 70
     1
102
RTVSPost2010Prop36
280
     0
102
RTVSPost2010PropOp36
 70
     1
102
RTVSPost2010Prop37
 90
       50
102
RTVSPost2010PropOp37
 70
     1
102
RTVSPost2010Prop38
140
0.0
102
RTVSPost2010PropOp38
 70
     1
102
RTVSPost2010Prop39
140
1.0
102
RTVSPost2010PropOp39
 70
     1
102
RTVSPost2010Prop40
 90
        0
102
RTVSPost2010PropOp40
 70
     1
102
RTVSPost2010Prop41ColorIndex
 90
       18
102
RTVSPost2010Prop41ColorRGB
 90
        0
102
RTVSPost2010PropOp41
 70
     1
102
RTVSPost2010Prop42
 90
       50
102
RTVSPost2010PropOp42
 70
     1
102
RTVSPost2010Prop43
 90
        3
102
RTVSPost2010PropOp43
 70
     1
102
RTVSPost2010Prop44ColorIndex
 90
        5
102
RTVSPost2010Prop44ColorRGB
 90
      255
102
RTVSPost2010PropOp44
 70
     1
102
RTVSPost2010Prop45
280
     0
102
RTVSPost2010PropOp45
 70
     1
102
RTVSPost2010Prop46
 90
       50
102
RTVSPost2010PropOp46
 70
     1
102
RTVSPost2010Prop47
 90
       50
102
RTVSPost2010PropOp47
 70
     1
102
RTVSPost2010Prop48
 90
       50
102
RTVSPost2010PropOp48
 70
     1
102
RTVSPost2010Prop49
280
     0
102
RTVSPost2010PropOp49
 70
     1
102
RTVSPost2010Prop50
 90
       50
102
RTVSPost2010PropOp50
 70
     1
102
RTVSPost2010Prop51ColorIndex
 90
      256
102
RTVSPost2010Prop51ColorRGB
 90
-16777216
102
RTVSPost2010PropOp51
 70
     0
102
RTVSPost2010Prop52
140
1.0
102
RTVSPost2010PropOp52
 70
     0
102
RTVSPost2010Prop53
 90
        2
102
RTVSPost2010PropOp53
 70
     1
102
RTVSPost2010Prop54
  1
strokes_ogs.tif
102
RTVSPost2010PropOp54
 70
     1
102
RTVSPost2010Prop55
280
     0
102
RTVSPost2010PropOp55
 70
     1
102
RTVSPost2010Prop56
140
1.0
102
RTVSPost2010PropOp56
 70
     1
102
RTVSPost2010Prop57
140
1.0
102
RTVSPost2010PropOp57
 70
     1
102
RTVSPropertyOp0
 70
     1
102
RTVSPropertyOp1
 70
     1
102
RTVSPropertyOp2
 70
     1
102
RTVSPropertyOp3
 70
     1
102
RTVSPropertyOp4
 70
     1
102
RTVSPropertyOp5
 70
     1
102
RTVSPropertyOp6
 70
     1
102
RTVSPropertyOp7
 70
     1
102
RTVSPropertyOp8
 70
     1
102
RTVSPropertyOp9
 70
     1
102
RTVSPropertyOp10
 70
     1
102
RTVSPropertyOp11
 70
     1
102
RTVSPropertyOp12
 70
     1
102
RTVSPropertyOp13
 70
     1
102
RTVSPropertyOp14
 70
     1
102
RTVSPropertyOp15
 70
     1
102
RTVSPropertyOp16
 70
     1
102
RTVSPropertyOp17
 70
     1
102
RTVSPropertyOp18
 70
     1
102
RTVSPropertyOp19
 70
     1
102
RTVSPropertyOp20
 70
     1
102
RTVSPropertyOp21
 70
     1
102
RTVSPropertyOp22
 70
     1
102
RTVSPropertyOp23
 70
     1
102
RTVSPropertyOp24
 70
     1
102
RTVSPropertyOp25
 70
     1
102
RTVSPropertyOp26
 70
     1
102
RTVSPropertyOp27
 70
     1
102
RTVSPropertyOp28
 70
     1
102
RTVSPropertyOp29
 70
     1
102
RTVSPropertyOp30
 70
     1
102
RTVSPropertyOp31
 70
     1
102
RTVSPropertyOp32
 70
     1
102
RTVSPropertyOp33
 70
     1
102
RTVSPropertyOp34
 70
     1
102
RTVSPropertyOp35
 70
     1
102
RTVSPropertyOp36
 70
     1
102
RTVSPropertyOp37
 70
     1
102
RTVSPropertyOp38
 70
     1
102
RTVSPropertyOp39
 70
     1
102
RTVSPropertyOp40
 70
     1
102
RTVSPropertyOp41
 70
     1
102
RTVSPropertyOp42
 70
     1
102
RTVSPropertyOp43
 70
     1
102
RTVSPropertyOp44
 70
     1
102
RTVSPropertyOp45
 70
     1
102
RTVSPropertyOp46
 70
     1
102
RTVSPropertyOp47
 70
     1
102
RTVSPropertyOp48
 70
     1
102
RTVSPropertyOp49
 70
     1
102
RTVSPropertyOp50
 70
     1
102
RTVSPropertyOp51
 70
     0
102
RTVSPropertyOp52
 70
     0
102
RTVSPropertyOp53
 70
     1
102
RTVSPropertyOp54
 70
     1
102
RTVSPropertyOp55
 70
     1
102
RTVSPropertyOp56
 70
     1
102
RTVSPropertyOp57
 70
     1
102
RTVSPropertyOp58
 70
     1
102
RTVSPropertyOp59
 70
     1
102
RTVSPropertyOp60
 70
     1
102
RTVSPropertyOp61
 70
     1
102
RTVSPropertyOp62
 70
     1
  0
XRECORD
  5
145E
102
{ACAD_REACTORS
330
145D
102
}
330
145D
100
AcDbXrecord
280
     1
102
RTVSPost2010Prop28
280
     0
102
RTVSPost2010PropOp28
 70
     1
102
RTVSPost2010Prop29
280
     1
102
RTVSPost2010PropOp29
 70
     1
102
RTVSPost2010Prop30
280
     1
102
RTVSPost2010PropOp30
 70
     1
102
RTVSPost2010Prop31
280
     0
102
RTVSPost2010PropOp31
 70
     1
102
RTVSPost2010Prop32
280
     0
102
RTVSPost2010PropOp32
 70
     1
102
RTVSPost2010Prop33
280
     0
102
RTVSPost2010PropOp33
 70
     1
102
RTVSPost2010Prop34
280
     0
102
RTVSPost2010PropOp34
 70
     1
102
RTVSPost2010Prop35
280
     0
102
RTVSPost2010PropOp35
 70
     1
102
RTVSPost2010Prop36
280
     0
102
RTVSPost2010PropOp36
 70
     1
102
RTVSPost2010Prop37
 90
       50
102
RTVSPost2010PropOp37
 70
     1
102
RTVSPost2010Prop38
140
0.0
102
RTVSPost2010PropOp38
 70
     1
102
RTVSPost2010Prop39
140
1.0
102
RTVSPost2010PropOp39
 70
     1
102
RTVSPost2010Prop40
 90
        0
102
RTVSPost2010PropOp40
 70
     1
102
RTVSPost2010Prop41ColorIndex
 90
       18
102
RTVSPost2010Prop41ColorRGB
 90
        0
102
RTVSPost2010PropOp41
 70
     1
102
RTVSPost2010Prop42
 90
       50
102
RTVSPost2010PropOp42
 70
     1
102
RTVSPost2010Prop43
 90
        3
102
RTVSPost2010PropOp43
 70
     1
102
RTVSPost2010Prop44ColorIndex
 90
        5
102
RTVSPost2010Prop44ColorRGB
 90
      255
102
RTVSPost2010PropOp44
 70
     1
102
RTVSPost2010Prop45
280
     0
102
RTVSPost2010PropOp45
 70
     1
102
RTVSPost2010Prop46
 90
       50
102
RTVSPost2010PropOp46
 70
     1
102
RTVSPost2010Prop47
 90
       50
102
RTVSPost2010PropOp47
 70
     1
102
RTVSPost2010Prop48
 90
       50
102
RTVSPost2010PropOp48
 70
     1
102
RTVSPost2010Prop49
280
     0
102
RTVSPost2010PropOp49
 70
     1
102
RTVSPost2010Prop50
 90
       50
102
RTVSPost2010PropOp50
 70
     1
102
RTVSPost2010Prop51ColorIndex
 90
      256
102
RTVSPost2010Prop51ColorRGB
 90
-16777216
102
RTVSPost2010PropOp51
 70
     0
102
RTVSPost2010Prop52
140
1.0
102
RTVSPost2010PropOp52
 70
     0
102
RTVSPost2010Prop53
 90
        2
102
RTVSPost2010PropOp53
 70
     1
102
RTVSPost2010Prop54
  1
strokes_ogs.tif
102
RTVSPost2010PropOp54
 70
     1
102
RTVSPost2010Prop55
280
     0
102
RTVSPost2010PropOp55
 70
     1
102
RTVSPost2010Prop56
140
1.0
102
RTVSPost2010PropOp56
 70
     1
102
RTVSPost2010Prop57
140
1.0
102
RTVSPost2010PropOp57
 70
     1
102
RTVSPropertyOp0
 70
     1
102
RTVSPropertyOp1
 70
     1
102
RTVSPropertyOp2
 70
     1
102
RTVSPropertyOp3
 70
     1
102
RTVSPropertyOp4
 70
     1
102
RTVSPropertyOp5
 70
     1
102
RTVSPropertyOp6
 70
     1
102
RTVSPropertyOp7
 70
     1
102
RTVSPropertyOp8
 70
     1
102
RTVSPropertyOp9
 70
     1
102
RTVSPropertyOp10
 70
     1
102
RTVSPropertyOp11
 70
     1
102
RTVSPropertyOp12
 70
     1
102
RTVSPropertyOp13
 70
     1
102
RTVSPropertyOp14
 70
     1
102
RTVSPropertyOp15
 70
     1
102
RTVSPropertyOp16
 70
     1
102
RTVSPropertyOp17
 70
     1
102
RTVSPropertyOp18
 70
     1
102
RTVSPropertyOp19
 70
     1
102
RTVSPropertyOp20
 70
     1
102
RTVSPropertyOp21
 70
     1
102
RTVSPropertyOp22
 70
     1
102
RTVSPropertyOp23
 70
     1
102
RTVSPropertyOp24
 70
     1
102
RTVSPropertyOp25
 70
     1
102
RTVSPropertyOp26
 70
     1
102
RTVSPropertyOp27
 70
     1
102
RTVSPropertyOp28
 70
     1
102
RTVSPropertyOp29
 70
     1
102
RTVSPropertyOp30
 70
     1
102
RTVSPropertyOp31
 70
     1
102
RTVSPropertyOp32
 70
     1
102
RTVSPropertyOp33
 70
     1
102
RTVSPropertyOp34
 70
     1
102
RTVSPropertyOp35
 70
     1
102
RTVSPropertyOp36
 70
     1
102
RTVSPropertyOp37
 70
     1
102
RTVSPropertyOp38
 70
     1
102
RTVSPropertyOp39
 70
     1
102
RTVSPropertyOp40
 70
     1
102
RTVSPropertyOp41
 70
     1
102
RTVSPropertyOp42
 70
     1
102
RTVSPropertyOp43
 70
     1
102
RTVSPropertyOp44
 70
     1
102
RTVSPropertyOp45
 70
     1
102
RTVSPropertyOp46
 70
     1
102
RTVSPropertyOp47
 70
     1
102
RTVSPropertyOp48
 70
     1
102
RTVSPropertyOp49
 70
     1
102
RTVSPropertyOp50
 70
     1
102
RTVSPropertyOp51
 70
     0
102
RTVSPropertyOp52
 70
     0
102
RTVSPropertyOp53
 70
     1
102
RTVSPropertyOp54
 70
     1
102
RTVSPropertyOp55
 70
     1
102
RTVSPropertyOp56
 70
     1
102
RTVSPropertyOp57
 70
     1
102
RTVSPropertyOp58
 70
     1
102
RTVSPropertyOp59
 70
     1
102
RTVSPropertyOp60
 70
     1
102
RTVSPropertyOp61
 70
     1
102
RTVSPropertyOp62
 70
     1
  0
XRECORD
  5
1460
102
{ACAD_REACTORS
330
145F
102
}
330
145F
100
AcDbXrecord
280
     1
102
RTVSPost2010Prop28
280
     0
102
RTVSPost2010PropOp28
 70
     1
102
RTVSPost2010Prop29
280
     1
102
RTVSPost2010PropOp29
 70
     1
102
RTVSPost2010Prop30
280
     1
102
RTVSPost2010PropOp30
 70
     1
102
RTVSPost2010Prop31
280
     0
102
RTVSPost2010PropOp31
 70
     1
102
RTVSPost2010Prop32
280
     0
102
RTVSPost2010PropOp32
 70
     1
102
RTVSPost2010Prop33
280
     0
102
RTVSPost2010PropOp33
 70
     1
102
RTVSPost2010Prop34
280
     0
102
RTVSPost2010PropOp34
 70
     1
102
RTVSPost2010Prop35
280
     0
102
RTVSPost2010PropOp35
 70
     1
102
RTVSPost2010Prop36
280
     0
102
RTVSPost2010PropOp36
 70
     1
102
RTVSPost2010Prop37
 90
       50
102
RTVSPost2010PropOp37
 70
     1
102
RTVSPost2010Prop38
140
0.0
102
RTVSPost2010PropOp38
 70
     1
102
RTVSPost2010Prop39
140
1.0
102
RTVSPost2010PropOp39
 70
     1
102
RTVSPost2010Prop40
 90
        0
102
RTVSPost2010PropOp40
 70
     1
102
RTVSPost2010Prop41ColorIndex
 90
       18
102
RTVSPost2010Prop41ColorRGB
 90
        0
102
RTVSPost2010PropOp41
 70
     1
102
RTVSPost2010Prop42
 90
       50
102
RTVSPost2010PropOp42
 70
     1
102
RTVSPost2010Prop43
 90
        3
102
RTVSPost2010PropOp43
 70
     1
102
RTVSPost2010Prop44ColorIndex
 90
        5
102
RTVSPost2010Prop44ColorRGB
 90
      255
102
RTVSPost2010PropOp44
 70
     1
102
RTVSPost2010Prop45
280
     0
102
RTVSPost2010PropOp45
 70
     1
102
RTVSPost2010Prop46
 90
       50
102
RTVSPost2010PropOp46
 70
     1
102
RTVSPost2010Prop47
 90
       50
102
RTVSPost2010PropOp47
 70
     1
102
RTVSPost2010Prop48
 90
       50
102
RTVSPost2010PropOp48
 70
     1
102
RTVSPost2010Prop49
280
     0
102
RTVSPost2010PropOp49
 70
     1
102
RTVSPost2010Prop50
 90
       50
102
RTVSPost2010PropOp50
 70
     1
102
RTVSPost2010Prop51ColorIndex
 90
      256
102
RTVSPost2010Prop51ColorRGB
 90
-16777216
102
RTVSPost2010PropOp51
 70
     0
102
RTVSPost2010Prop52
140
1.0
102
RTVSPost2010PropOp52
 70
     0
102
RTVSPost2010Prop53
 90
        2
102
RTVSPost2010PropOp53
 70
     1
102
RTVSPost2010Prop54
  1
strokes_ogs.tif
102
RTVSPost2010PropOp54
 70
     1
102
RTVSPost2010Prop55
280
     0
102
RTVSPost2010PropOp55
 70
     1
102
RTVSPost2010Prop56
140
1.0
102
RTVSPost2010PropOp56
 70
     1
102
RTVSPost2010Prop57
140
1.0
102
RTVSPost2010PropOp57
 70
     1
102
RTVSPropertyOp0
 70
     1
102
RTVSPropertyOp1
 70
     1
102
RTVSPropertyOp2
 70
     1
102
RTVSPropertyOp3
 70
     1
102
RTVSPropertyOp4
 70
     1
102
RTVSPropertyOp5
 70
     1
102
RTVSPropertyOp6
 70
     1
102
RTVSPropertyOp7
 70
     1
102
RTVSPropertyOp8
 70
     1
102
RTVSPropertyOp9
 70
     1
102
RTVSPropertyOp10
 70
     1
102
RTVSPropertyOp11
 70
     1
102
RTVSPropertyOp12
 70
     1
102
RTVSPropertyOp13
 70
     1
102
RTVSPropertyOp14
 70
     1
102
RTVSPropertyOp15
 70
     1
102
RTVSPropertyOp16
 70
     1
102
RTVSPropertyOp17
 70
     1
102
RTVSPropertyOp18
 70
     1
102
RTVSPropertyOp19
 70
     1
102
RTVSPropertyOp20
 70
     1
102
RTVSPropertyOp21
 70
     1
102
RTVSPropertyOp22
 70
     1
102
RTVSPropertyOp23
 70
     1
102
RTVSPropertyOp24
 70
     1
102
RTVSPropertyOp25
 70
     1
102
RTVSPropertyOp26
 70
     1
102
RTVSPropertyOp27
 70
     1
102
RTVSPropertyOp28
 70
     1
102
RTVSPropertyOp29
 70
     1
102
RTVSPropertyOp30
 70
     1
102
RTVSPropertyOp31
 70
     1
102
RTVSPropertyOp32
 70
     1
102
RTVSPropertyOp33
 70
     1
102
RTVSPropertyOp34
 70
     1
102
RTVSPropertyOp35
 70
     1
102
RTVSPropertyOp36
 70
     1
102
RTVSPropertyOp37
 70
     1
102
RTVSPropertyOp38
 70
     1
102
RTVSPropertyOp39
 70
     1
102
RTVSPropertyOp40
 70
     1
102
RTVSPropertyOp41
 70
     1
102
RTVSPropertyOp42
 70
     1
102
RTVSPropertyOp43
 70
     1
102
RTVSPropertyOp44
 70
     1
102
RTVSPropertyOp45
 70
     1
102
RTVSPropertyOp46
 70
     1
102
RTVSPropertyOp47
 70
     1
102
RTVSPropertyOp48
 70
     1
102
RTVSPropertyOp49
 70
     1
102
RTVSPropertyOp50
 70
     1
102
RTVSPropertyOp51
 70
     0
102
RTVSPropertyOp52
 70
     0
102
RTVSPropertyOp53
 70
     1
102
RTVSPropertyOp54
 70
     1
102
RTVSPropertyOp55
 70
     1
102
RTVSPropertyOp56
 70
     1
102
RTVSPropertyOp57
 70
     1
102
RTVSPropertyOp58
 70
     1
102
RTVSPropertyOp59
 70
     1
102
RTVSPropertyOp60
 70
     1
102
RTVSPropertyOp61
 70
     1
102
RTVSPropertyOp62
 70
     1
  0
XRECORD
  5
1462
102
{ACAD_REACTORS
330
1461
102
}
330
1461
100
AcDbXrecord
280
     1
102
RTVSPost2010Prop28
280
     0
102
RTVSPost2010PropOp28
 70
     1
102
RTVSPost2010Prop29
280
     1
102
RTVSPost2010PropOp29
 70
     1
102
RTVSPost2010Prop30
280
     1
102
RTVSPost2010PropOp30
 70
     1
102
RTVSPost2010Prop31
280
     0
102
RTVSPost2010PropOp31
 70
     1
102
RTVSPost2010Prop32
280
     0
102
RTVSPost2010PropOp32
 70
     1
102
RTVSPost2010Prop33
280
     0
102
RTVSPost2010PropOp33
 70
     1
102
RTVSPost2010Prop34
280
     0
102
RTVSPost2010PropOp34
 70
     1
102
RTVSPost2010Prop35
280
     0
102
RTVSPost2010PropOp35
 70
     1
102
RTVSPost2010Prop36
280
     0
102
RTVSPost2010PropOp36
 70
     1
102
RTVSPost2010Prop37
 90
       50
102
RTVSPost2010PropOp37
 70
     1
102
RTVSPost2010Prop38
140
0.0
102
RTVSPost2010PropOp38
 70
     1
102
RTVSPost2010Prop39
140
1.0
102
RTVSPost2010PropOp39
 70
     1
102
RTVSPost2010Prop40
 90
        0
102
RTVSPost2010PropOp40
 70
     1
102
RTVSPost2010Prop41ColorIndex
 90
       18
102
RTVSPost2010Prop41ColorRGB
 90
        0
102
RTVSPost2010PropOp41
 70
     1
102
RTVSPost2010Prop42
 90
       50
102
RTVSPost2010PropOp42
 70
     1
102
RTVSPost2010Prop43
 90
        3
102
RTVSPost2010PropOp43
 70
     1
102
RTVSPost2010Prop44ColorIndex
 90
        5
102
RTVSPost2010Prop44ColorRGB
 90
      255
102
RTVSPost2010PropOp44
 70
     1
102
RTVSPost2010Prop45
280
     0
102
RTVSPost2010PropOp45
 70
     1
102
RTVSPost2010Prop46
 90
       50
102
RTVSPost2010PropOp46
 70
     1
102
RTVSPost2010Prop47
 90
       50
102
RTVSPost2010PropOp47
 70
     1
102
RTVSPost2010Prop48
 90
       50
102
RTVSPost2010PropOp48
 70
     1
102
RTVSPost2010Prop49
280
     0
102
RTVSPost2010PropOp49
 70
     1
102
RTVSPost2010Prop50
 90
       50
102
RTVSPost2010PropOp50
 70
     1
102
RTVSPost2010Prop51ColorIndex
 90
      256
102
RTVSPost2010Prop51ColorRGB
 90
-16777216
102
RTVSPost2010PropOp51
 70
     0
102
RTVSPost2010Prop52
140
1.0
102
RTVSPost2010PropOp52
 70
     0
102
RTVSPost2010Prop53
 90
        2
102
RTVSPost2010PropOp53
 70
     1
102
RTVSPost2010Prop54
  1
strokes_ogs.tif
102
RTVSPost2010PropOp54
 70
     1
102
RTVSPost2010Prop55
280
     0
102
RTVSPost2010PropOp55
 70
     1
102
RTVSPost2010Prop56
140
1.0
102
RTVSPost2010PropOp56
 70
     1
102
RTVSPost2010Prop57
140
1.0
102
RTVSPost2010PropOp57
 70
     1
102
RTVSPropertyOp0
 70
     1
102
RTVSPropertyOp1
 70
     1
102
RTVSPropertyOp2
 70
     1
102
RTVSPropertyOp3
 70
     1
102
RTVSPropertyOp4
 70
     1
102
RTVSPropertyOp5
 70
     1
102
RTVSPropertyOp6
 70
     1
102
RTVSPropertyOp7
 70
     1
102
RTVSPropertyOp8
 70
     1
102
RTVSPropertyOp9
 70
     1
102
RTVSPropertyOp10
 70
     1
102
RTVSPropertyOp11
 70
     1
102
RTVSPropertyOp12
 70
     1
102
RTVSPropertyOp13
 70
     1
102
RTVSPropertyOp14
 70
     1
102
RTVSPropertyOp15
 70
     1
102
RTVSPropertyOp16
 70
     1
102
RTVSPropertyOp17
 70
     1
102
RTVSPropertyOp18
 70
     1
102
RTVSPropertyOp19
 70
     1
102
RTVSPropertyOp20
 70
     1
102
RTVSPropertyOp21
 70
     1
102
RTVSPropertyOp22
 70
     1
102
RTVSPropertyOp23
 70
     1
102
RTVSPropertyOp24
 70
     1
102
RTVSPropertyOp25
 70
     1
102
RTVSPropertyOp26
 70
     1
102
RTVSPropertyOp27
 70
     1
102
RTVSPropertyOp28
 70
     1
102
RTVSPropertyOp29
 70
     1
102
RTVSPropertyOp30
 70
     1
102
RTVSPropertyOp31
 70
     1
102
RTVSPropertyOp32
 70
     1
102
RTVSPropertyOp33
 70
     1
102
RTVSPropertyOp34
 70
     1
102
RTVSPropertyOp35
 70
     1
102
RTVSPropertyOp36
 70
     1
102
RTVSPropertyOp37
 70
     1
102
RTVSPropertyOp38
 70
     1
102
RTVSPropertyOp39
 70
     1
102
RTVSPropertyOp40
 70
     1
102
RTVSPropertyOp41
 70
     1
102
RTVSPropertyOp42
 70
     1
102
RTVSPropertyOp43
 70
     1
102
RTVSPropertyOp44
 70
     1
102
RTVSPropertyOp45
 70
     1
102
RTVSPropertyOp46
 70
     1
102
RTVSPropertyOp47
 70
     1
102
RTVSPropertyOp48
 70
     1
102
RTVSPropertyOp49
 70
     1
102
RTVSPropertyOp50
 70
     1
102
RTVSPropertyOp51
 70
     0
102
RTVSPropertyOp52
 70
     0
102
RTVSPropertyOp53
 70
     1
102
RTVSPropertyOp54
 70
     1
102
RTVSPropertyOp55
 70
     1
102
RTVSPropertyOp56
 70
     1
102
RTVSPropertyOp57
 70
     1
102
RTVSPropertyOp58
 70
     1
102
RTVSPropertyOp59
 70
     1
102
RTVSPropertyOp60
 70
     1
102
RTVSPropertyOp61
 70
     1
102
RTVSPropertyOp62
 70
     1
  0
XRECORD
  5
146A
102
{ACAD_REACTORS
330
1469
102
}
330
1469
100
AcDbXrecord
280
     1
102
RTVSPost2010Prop28
280
     0
102
RTVSPost2010PropOp28
 70
     1
102
RTVSPost2010Prop29
280
     1
102
RTVSPost2010PropOp29
 70
     1
102
RTVSPost2010Prop30
280
     1
102
RTVSPost2010PropOp30
 70
     1
102
RTVSPost2010Prop31
280
     0
102
RTVSPost2010PropOp31
 70
     1
102
RTVSPost2010Prop32
280
     0
102
RTVSPost2010PropOp32
 70
     1
102
RTVSPost2010Prop33
280
     0
102
RTVSPost2010PropOp33
 70
     1
102
RTVSPost2010Prop34
280
     0
102
RTVSPost2010PropOp34
 70
     1
102
RTVSPost2010Prop35
280
     0
102
RTVSPost2010PropOp35
 70
     1
102
RTVSPost2010Prop36
280
     0
102
RTVSPost2010PropOp36
 70
     1
102
RTVSPost2010Prop37
 90
       50
102
RTVSPost2010PropOp37
 70
     1
102
RTVSPost2010Prop38
140
0.0
102
RTVSPost2010PropOp38
 70
     1
102
RTVSPost2010Prop39
140
1.0
102
RTVSPost2010PropOp39
 70
     1
102
RTVSPost2010Prop40
 90
        0
102
RTVSPost2010PropOp40
 70
     1
102
RTVSPost2010Prop41ColorIndex
 90
       18
102
RTVSPost2010Prop41ColorRGB
 90
        0
102
RTVSPost2010PropOp41
 70
     1
102
RTVSPost2010Prop42
 90
       50
102
RTVSPost2010PropOp42
 70
     1
102
RTVSPost2010Prop43
 90
        3
102
RTVSPost2010PropOp43
 70
     1
102
RTVSPost2010Prop44ColorIndex
 90
        5
102
RTVSPost2010Prop44ColorRGB
 90
      255
102
RTVSPost2010PropOp44
 70
     1
102
RTVSPost2010Prop45
280
     0
102
RTVSPost2010PropOp45
 70
     1
102
RTVSPost2010Prop46
 90
       50
102
RTVSPost2010PropOp46
 70
     1
102
RTVSPost2010Prop47
 90
       50
102
RTVSPost2010PropOp47
 70
     1
102
RTVSPost2010Prop48
 90
       50
102
RTVSPost2010PropOp48
 70
     1
102
RTVSPost2010Prop49
280
     0
102
RTVSPost2010PropOp49
 70
     1
102
RTVSPost2010Prop50
 90
       50
102
RTVSPost2010PropOp50
 70
     1
102
RTVSPost2010Prop51ColorIndex
 90
      256
102
RTVSPost2010Prop51ColorRGB
 90
-16777216
102
RTVSPost2010PropOp51
 70
     0
102
RTVSPost2010Prop52
140
1.0
102
RTVSPost2010PropOp52
 70
     0
102
RTVSPost2010Prop53
 90
        2
102
RTVSPost2010PropOp53
 70
     1
102
RTVSPost2010Prop54
  1
strokes_ogs.tif
102
RTVSPost2010PropOp54
 70
     1
102
RTVSPost2010Prop55
280
     0
102
RTVSPost2010PropOp55
 70
     1
102
RTVSPost2010Prop56
140
1.0
102
RTVSPost2010PropOp56
 70
     1
102
RTVSPost2010Prop57
140
1.0
102
RTVSPost2010PropOp57
 70
     1
102
RTVSPropertyOp0
 70
     1
102
RTVSPropertyOp1
 70
     1
102
RTVSPropertyOp2
 70
     1
102
RTVSPropertyOp3
 70
     1
102
RTVSPropertyOp4
 70
     1
102
RTVSPropertyOp5
 70
     1
102
RTVSPropertyOp6
 70
     1
102
RTVSPropertyOp7
 70
     1
102
RTVSPropertyOp8
 70
     1
102
RTVSPropertyOp9
 70
     1
102
RTVSPropertyOp10
 70
     1
102
RTVSPropertyOp11
 70
     1
102
RTVSPropertyOp12
 70
     1
102
RTVSPropertyOp13
 70
     1
102
RTVSPropertyOp14
 70
     1
102
RTVSPropertyOp15
 70
     1
102
RTVSPropertyOp16
 70
     1
102
RTVSPropertyOp17
 70
     1
102
RTVSPropertyOp18
 70
     1
102
RTVSPropertyOp19
 70
     1
102
RTVSPropertyOp20
 70
     1
102
RTVSPropertyOp21
 70
     1
102
RTVSPropertyOp22
 70
     1
102
RTVSPropertyOp23
 70
     1
102
RTVSPropertyOp24
 70
     1
102
RTVSPropertyOp25
 70
     1
102
RTVSPropertyOp26
 70
     1
102
RTVSPropertyOp27
 70
     1
102
RTVSPropertyOp28
 70
     1
102
RTVSPropertyOp29
 70
     1
102
RTVSPropertyOp30
 70
     1
102
RTVSPropertyOp31
 70
     1
102
RTVSPropertyOp32
 70
     1
102
RTVSPropertyOp33
 70
     1
102
RTVSPropertyOp34
 70
     1
102
RTVSPropertyOp35
 70
     1
102
RTVSPropertyOp36
 70
     1
102
RTVSPropertyOp37
 70
     1
102
RTVSPropertyOp38
 70
     1
102
RTVSPropertyOp39
 70
     1
102
RTVSPropertyOp40
 70
     1
102
RTVSPropertyOp41
 70
     1
102
RTVSPropertyOp42
 70
     1
102
RTVSPropertyOp43
 70
     1
102
RTVSPropertyOp44
 70
     1
102
RTVSPropertyOp45
 70
     1
102
RTVSPropertyOp46
 70
     1
102
RTVSPropertyOp47
 70
     1
102
RTVSPropertyOp48
 70
     1
102
RTVSPropertyOp49
 70
     1
102
RTVSPropertyOp50
 70
     1
102
RTVSPropertyOp51
 70
     0
102
RTVSPropertyOp52
 70
     0
102
RTVSPropertyOp53
 70
     1
102
RTVSPropertyOp54
 70
     1
102
RTVSPropertyOp55
 70
     1
102
RTVSPropertyOp56
 70
     1
102
RTVSPropertyOp57
 70
     1
102
RTVSPropertyOp58
 70
     1
102
RTVSPropertyOp59
 70
     1
102
RTVSPropertyOp60
 70
     1
102
RTVSPropertyOp61
 70
     1
102
RTVSPropertyOp62
 70
     1
  0
XRECORD
  5
1486
102
{ACAD_REACTORS
330
1485
102
}
330
1485
100
AcDbXrecord
280
     1
102
RTVSPost2010Prop28
280
     0
102
RTVSPost2010PropOp28
 70
     0
102
RTVSPost2010Prop29
280
     1
102
RTVSPost2010PropOp29
 70
     0
102
RTVSPost2010Prop30
280
     1
102
RTVSPost2010PropOp30
 70
     0
102
RTVSPost2010Prop31
280
     0
102
RTVSPost2010PropOp31
 70
     0
102
RTVSPost2010Prop32
280
     0
102
RTVSPost2010PropOp32
 70
     0
102
RTVSPost2010Prop33
280
     0
102
RTVSPost2010PropOp33
 70
     0
102
RTVSPost2010Prop34
280
     0
102
RTVSPost2010PropOp34
 70
     0
102
RTVSPost2010Prop35
280
     0
102
RTVSPost2010PropOp35
 70
     0
102
RTVSPost2010Prop36
280
     0
102
RTVSPost2010PropOp36
 70
     0
102
RTVSPost2010Prop37
 90
       50
102
RTVSPost2010PropOp37
 70
     0
102
RTVSPost2010Prop38
140
0.0
102
RTVSPost2010PropOp38
 70
     0
102
RTVSPost2010Prop39
140
1.0
102
RTVSPost2010PropOp39
 70
     0
102
RTVSPost2010Prop40
 90
        0
102
RTVSPost2010PropOp40
 70
     0
102
RTVSPost2010Prop41ColorIndex
 90
       18
102
RTVSPost2010Prop41ColorRGB
 90
        0
102
RTVSPost2010PropOp41
 70
     0
102
RTVSPost2010Prop42
 90
       50
102
RTVSPost2010PropOp42
 70
     0
102
RTVSPost2010Prop43
 90
        3
102
RTVSPost2010PropOp43
 70
     0
102
RTVSPost2010Prop44ColorIndex
 90
        5
102
RTVSPost2010Prop44ColorRGB
 90
      255
102
RTVSPost2010PropOp44
 70
     0
102
RTVSPost2010Prop45
280
     0
102
RTVSPost2010PropOp45
 70
     0
102
RTVSPost2010Prop46
 90
       50
102
RTVSPost2010PropOp46
 70
     0
102
RTVSPost2010Prop47
 90
       50
102
RTVSPost2010PropOp47
 70
     0
102
RTVSPost2010Prop48
 90
       50
102
RTVSPost2010PropOp48
 70
     0
102
RTVSPost2010Prop49
280
     0
102
RTVSPost2010PropOp49
 70
     0
102
RTVSPost2010Prop50
 90
       50
102
RTVSPost2010PropOp50
 70
     0
102
RTVSPost2010Prop51ColorIndex
 90
      256
102
RTVSPost2010Prop51ColorRGB
 90
-16777216
102
RTVSPost2010PropOp51
 70
     0
102
RTVSPost2010Prop52
140
1.0
102
RTVSPost2010PropOp52
 70
     0
102
RTVSPost2010Prop53
 90
        2
102
RTVSPost2010PropOp53
 70
     0
102
RTVSPost2010Prop54
  1
strokes_ogs.tif
102
RTVSPost2010PropOp54
 70
     0
102
RTVSPost2010Prop55
280
     0
102
RTVSPost2010PropOp55
 70
     0
102
RTVSPost2010Prop56
140
1.0
102
RTVSPost2010PropOp56
 70
     0
102
RTVSPost2010Prop57
140
1.0
102
RTVSPost2010PropOp57
 70
     0
102
RTVSPropertyOp0
 70
     0
102
RTVSPropertyOp1
 70
     0
102
RTVSPropertyOp2
 70
     0
102
RTVSPropertyOp3
 70
     0
102
RTVSPropertyOp4
 70
     0
102
RTVSPropertyOp5
 70
     0
102
RTVSPropertyOp6
 70
     0
102
RTVSPropertyOp7
 70
     0
102
RTVSPropertyOp8
 70
     0
102
RTVSPropertyOp9
 70
     0
102
RTVSPropertyOp10
 70
     0
102
RTVSPropertyOp11
 70
     0
102
RTVSPropertyOp12
 70
     0
102
RTVSPropertyOp13
 70
     0
102
RTVSPropertyOp14
 70
     2
102
RTVSPropertyOp15
 70
     0
102
RTVSPropertyOp16
 70
     0
102
RTVSPropertyOp17
 70
     0
102
RTVSPropertyOp18
 70
     0
102
RTVSPropertyOp19
 70
     0
102
RTVSPropertyOp20
 70
     0
102
RTVSPropertyOp21
 70
     0
102
RTVSPropertyOp22
 70
     0
102
RTVSPropertyOp23
 70
     0
102
RTVSPropertyOp24
 70
     0
102
RTVSPropertyOp25
 70
     0
102
RTVSPropertyOp26
 70
     0
102
RTVSPropertyOp27
 70
     0
102
RTVSPropertyOp28
 70
     0
102
RTVSPropertyOp29
 70
     0
102
RTVSPropertyOp30
 70
     0
102
RTVSPropertyOp31
 70
     0
102
RTVSPropertyOp32
 70
     0
102
RTVSPropertyOp33
 70
     0
102
RTVSPropertyOp34
 70
     0
102
RTVSPropertyOp35
 70
     0
102
RTVSPropertyOp36
 70
     0
102
RTVSPropertyOp37
 70
     0
102
RTVSPropertyOp38
 70
     0
102
RTVSPropertyOp39
 70
     0
102
RTVSPropertyOp40
 70
     0
102
RTVSPropertyOp41
 70
     0
102
RTVSPropertyOp42
 70
     0
102
RTVSPropertyOp43
 70
     0
102
RTVSPropertyOp44
 70
     0
102
RTVSPropertyOp45
 70
     0
102
RTVSPropertyOp46
 70
     0
102
RTVSPropertyOp47
 70
     0
102
RTVSPropertyOp48
 70
     0
102
RTVSPropertyOp49
 70
     0
102
RTVSPropertyOp50
 70
     0
102
RTVSPropertyOp51
 70
     0
102
RTVSPropertyOp52
 70
     0
102
RTVSPropertyOp53
 70
     0
102
RTVSPropertyOp54
 70
     0
102
RTVSPropertyOp55
 70
     0
102
RTVSPropertyOp56
 70
     0
102
RTVSPropertyOp57
 70
     0
102
RTVSPropertyOp58
 70
     0
102
RTVSPropertyOp59
 70
     0
102
RTVSPropertyOp60
 70
     0
102
RTVSPropertyOp61
 70
     0
102
RTVSPropertyOp62
 70
     0
  0
XRECORD
  5
1476
102
{ACAD_REACTORS
330
1475
102
}
330
1475
100
AcDbXrecord
280
     1
102
RTVSPost2010Prop28
280
     0
102
RTVSPost2010PropOp28
 70
     1
102
RTVSPost2010Prop29
280
     1
102
RTVSPost2010PropOp29
 70
     1
102
RTVSPost2010Prop30
280
     1
102
RTVSPost2010PropOp30
 70
     1
102
RTVSPost2010Prop31
280
     0
102
RTVSPost2010PropOp31
 70
     1
102
RTVSPost2010Prop32
280
     0
102
RTVSPost2010PropOp32
 70
     1
102
RTVSPost2010Prop33
280
     0
102
RTVSPost2010PropOp33
 70
     1
102
RTVSPost2010Prop34
280
     0
102
RTVSPost2010PropOp34
 70
     1
102
RTVSPost2010Prop35
280
     0
102
RTVSPost2010PropOp35
 70
     1
102
RTVSPost2010Prop36
280
     0
102
RTVSPost2010PropOp36
 70
     1
102
RTVSPost2010Prop37
 90
       50
102
RTVSPost2010PropOp37
 70
     1
102
RTVSPost2010Prop38
140
0.0
102
RTVSPost2010PropOp38
 70
     1
102
RTVSPost2010Prop39
140
1.0
102
RTVSPost2010PropOp39
 70
     1
102
RTVSPost2010Prop40
 90
        0
102
RTVSPost2010PropOp40
 70
     1
102
RTVSPost2010Prop41ColorIndex
 90
       18
102
RTVSPost2010Prop41ColorRGB
 90
        0
102
RTVSPost2010PropOp41
 70
     1
102
RTVSPost2010Prop42
 90
       50
102
RTVSPost2010PropOp42
 70
     1
102
RTVSPost2010Prop43
 90
        3
102
RTVSPost2010PropOp43
 70
     1
102
RTVSPost2010Prop44ColorIndex
 90
        5
102
RTVSPost2010Prop44ColorRGB
 90
      255
102
RTVSPost2010PropOp44
 70
     1
102
RTVSPost2010Prop45
280
     0
102
RTVSPost2010PropOp45
 70
     1
102
RTVSPost2010Prop46
 90
       50
102
RTVSPost2010PropOp46
 70
     1
102
RTVSPost2010Prop47
 90
       50
102
RTVSPost2010PropOp47
 70
     1
102
RTVSPost2010Prop48
 90
       50
102
RTVSPost2010PropOp48
 70
     1
102
RTVSPost2010Prop49
280
     0
102
RTVSPost2010PropOp49
 70
     1
102
RTVSPost2010Prop50
 90
       50
102
RTVSPost2010PropOp50
 70
     1
102
RTVSPost2010Prop51ColorIndex
 90
      256
102
RTVSPost2010Prop51ColorRGB
 90
-16777216
102
RTVSPost2010PropOp51
 70
     0
102
RTVSPost2010Prop52
140
1.0
102
RTVSPost2010PropOp52
 70
     0
102
RTVSPost2010Prop53
 90
        2
102
RTVSPost2010PropOp53
 70
     1
102
RTVSPost2010Prop54
  1
strokes_ogs.tif
102
RTVSPost2010PropOp54
 70
     1
102
RTVSPost2010Prop55
280
     0
102
RTVSPost2010PropOp55
 70
     1
102
RTVSPost2010Prop56
140
1.0
102
RTVSPost2010PropOp56
 70
     1
102
RTVSPost2010Prop57
140
1.0
102
RTVSPost2010PropOp57
 70
     1
102
RTVSPropertyOp0
 70
     1
102
RTVSPropertyOp1
 70
     1
102
RTVSPropertyOp2
 70
     1
102
RTVSPropertyOp3
 70
     1
102
RTVSPropertyOp4
 70
     1
102
RTVSPropertyOp5
 70
     1
102
RTVSPropertyOp6
 70
     1
102
RTVSPropertyOp7
 70
     1
102
RTVSPropertyOp8
 70
     1
102
RTVSPropertyOp9
 70
     1
102
RTVSPropertyOp10
 70
     1
102
RTVSPropertyOp11
 70
     1
102
RTVSPropertyOp12
 70
     1
102
RTVSPropertyOp13
 70
     1
102
RTVSPropertyOp14
 70
     1
102
RTVSPropertyOp15
 70
     1
102
RTVSPropertyOp16
 70
     1
102
RTVSPropertyOp17
 70
     1
102
RTVSPropertyOp18
 70
     1
102
RTVSPropertyOp19
 70
     1
102
RTVSPropertyOp20
 70
     1
102
RTVSPropertyOp21
 70
     1
102
RTVSPropertyOp22
 70
     1
102
RTVSPropertyOp23
 70
     1
102
RTVSPropertyOp24
 70
     1
102
RTVSPropertyOp25
 70
     1
102
RTVSPropertyOp26
 70
     1
102
RTVSPropertyOp27
 70
     1
102
RTVSPropertyOp28
 70
     1
102
RTVSPropertyOp29
 70
     1
102
RTVSPropertyOp30
 70
     1
102
RTVSPropertyOp31
 70
     1
102
RTVSPropertyOp32
 70
     1
102
RTVSPropertyOp33
 70
     1
102
RTVSPropertyOp34
 70
     1
102
RTVSPropertyOp35
 70
     1
102
RTVSPropertyOp36
 70
     1
102
RTVSPropertyOp37
 70
     1
102
RTVSPropertyOp38
 70
     1
102
RTVSPropertyOp39
 70
     1
102
RTVSPropertyOp40
 70
     1
102
RTVSPropertyOp41
 70
     1
102
RTVSPropertyOp42
 70
     1
102
RTVSPropertyOp43
 70
     1
102
RTVSPropertyOp44
 70
     1
102
RTVSPropertyOp45
 70
     1
102
RTVSPropertyOp46
 70
     1
102
RTVSPropertyOp47
 70
     1
102
RTVSPropertyOp48
 70
     1
102
RTVSPropertyOp49
 70
     1
102
RTVSPropertyOp50
 70
     1
102
RTVSPropertyOp51
 70
     0
102
RTVSPropertyOp52
 70
     0
102
RTVSPropertyOp53
 70
     1
102
RTVSPropertyOp54
 70
     1
102
RTVSPropertyOp55
 70
     1
102
RTVSPropertyOp56
 70
     1
102
RTVSPropertyOp57
 70
     1
102
RTVSPropertyOp58
 70
     1
102
RTVSPropertyOp59
 70
     1
102
RTVSPropertyOp60
 70
     1
102
RTVSPropertyOp61
 70
     1
102
RTVSPropertyOp62
 70
     1
  0
XRECORD
  5
1488
102
{ACAD_REACTORS
330
1487
102
}
330
1487
100
AcDbXrecord
280
     1
102
RTVSPost2010Prop28
280
     0
102
RTVSPost2010PropOp28
 70
     0
102
RTVSPost2010Prop29
280
     1
102
RTVSPost2010PropOp29
 70
     0
102
RTVSPost2010Prop30
280
     1
102
RTVSPost2010PropOp30
 70
     0
102
RTVSPost2010Prop31
280
     0
102
RTVSPost2010PropOp31
 70
     0
102
RTVSPost2010Prop32
280
     0
102
RTVSPost2010PropOp32
 70
     0
102
RTVSPost2010Prop33
280
     0
102
RTVSPost2010PropOp33
 70
     0
102
RTVSPost2010Prop34
280
     0
102
RTVSPost2010PropOp34
 70
     0
102
RTVSPost2010Prop35
280
     0
102
RTVSPost2010PropOp35
 70
     0
102
RTVSPost2010Prop36
280
     0
102
RTVSPost2010PropOp36
 70
     0
102
RTVSPost2010Prop37
 90
       50
102
RTVSPost2010PropOp37
 70
     0
102
RTVSPost2010Prop38
140
0.0
102
RTVSPost2010PropOp38
 70
     0
102
RTVSPost2010Prop39
140
1.0
102
RTVSPost2010PropOp39
 70
     0
102
RTVSPost2010Prop40
 90
        0
102
RTVSPost2010PropOp40
 70
     0
102
RTVSPost2010Prop41ColorIndex
 90
       18
102
RTVSPost2010Prop41ColorRGB
 90
        0
102
RTVSPost2010PropOp41
 70
     0
102
RTVSPost2010Prop42
 90
       50
102
RTVSPost2010PropOp42
 70
     0
102
RTVSPost2010Prop43
 90
        3
102
RTVSPost2010PropOp43
 70
     0
102
RTVSPost2010Prop44ColorIndex
 90
        5
102
RTVSPost2010Prop44ColorRGB
 90
      255
102
RTVSPost2010PropOp44
 70
     0
102
RTVSPost2010Prop45
280
     0
102
RTVSPost2010PropOp45
 70
     0
102
RTVSPost2010Prop46
 90
       50
102
RTVSPost2010PropOp46
 70
     0
102
RTVSPost2010Prop47
 90
       50
102
RTVSPost2010PropOp47
 70
     0
102
RTVSPost2010Prop48
 90
       50
102
RTVSPost2010PropOp48
 70
     0
102
RTVSPost2010Prop49
280
     0
102
RTVSPost2010PropOp49
 70
     0
102
RTVSPost2010Prop50
 90
       50
102
RTVSPost2010PropOp50
 70
     0
102
RTVSPost2010Prop51ColorIndex
 90
      256
102
RTVSPost2010Prop51ColorRGB
 90
-16777216
102
RTVSPost2010PropOp51
 70
     0
102
RTVSPost2010Prop52
140
1.0
102
RTVSPost2010PropOp52
 70
     0
102
RTVSPost2010Prop53
 90
        2
102
RTVSPost2010PropOp53
 70
     0
102
RTVSPost2010Prop54
  1
strokes_ogs.tif
102
RTVSPost2010PropOp54
 70
     0
102
RTVSPost2010Prop55
280
     0
102
RTVSPost2010PropOp55
 70
     0
102
RTVSPost2010Prop56
140
1.0
102
RTVSPost2010PropOp56
 70
     0
102
RTVSPost2010Prop57
140
1.0
102
RTVSPost2010PropOp57
 70
     0
102
RTVSPropertyOp0
 70
     0
102
RTVSPropertyOp1
 70
     0
102
RTVSPropertyOp2
 70
     0
102
RTVSPropertyOp3
 70
     0
102
RTVSPropertyOp4
 70
     0
102
RTVSPropertyOp5
 70
     0
102
RTVSPropertyOp6
 70
     0
102
RTVSPropertyOp7
 70
     0
102
RTVSPropertyOp8
 70
     0
102
RTVSPropertyOp9
 70
     0
102
RTVSPropertyOp10
 70
     0
102
RTVSPropertyOp11
 70
     0
102
RTVSPropertyOp12
 70
     0
102
RTVSPropertyOp13
 70
     0
102
RTVSPropertyOp14
 70
     2
102
RTVSPropertyOp15
 70
     0
102
RTVSPropertyOp16
 70
     0
102
RTVSPropertyOp17
 70
     0
102
RTVSPropertyOp18
 70
     0
102
RTVSPropertyOp19
 70
     0
102
RTVSPropertyOp20
 70
     0
102
RTVSPropertyOp21
 70
     0
102
RTVSPropertyOp22
 70
     0
102
RTVSPropertyOp23
 70
     0
102
RTVSPropertyOp24
 70
     0
102
RTVSPropertyOp25
 70
     0
102
RTVSPropertyOp26
 70
     0
102
RTVSPropertyOp27
 70
     0
102
RTVSPropertyOp28
 70
     0
102
RTVSPropertyOp29
 70
     0
102
RTVSPropertyOp30
 70
     0
102
RTVSPropertyOp31
 70
     0
102
RTVSPropertyOp32
 70
     0
102
RTVSPropertyOp33
 70
     0
102
RTVSPropertyOp34
 70
     0
102
RTVSPropertyOp35
 70
     0
102
RTVSPropertyOp36
 70
     0
102
RTVSPropertyOp37
 70
     0
102
RTVSPropertyOp38
 70
     0
102
RTVSPropertyOp39
 70
     0
102
RTVSPropertyOp40
 70
     0
102
RTVSPropertyOp41
 70
     0
102
RTVSPropertyOp42
 70
     0
102
RTVSPropertyOp43
 70
     0
102
RTVSPropertyOp44
 70
     0
102
RTVSPropertyOp45
 70
     0
102
RTVSPropertyOp46
 70
     0
102
RTVSPropertyOp47
 70
     0
102
RTVSPropertyOp48
 70
     0
102
RTVSPropertyOp49
 70
     0
102
RTVSPropertyOp50
 70
     0
102
RTVSPropertyOp51
 70
     0
102
RTVSPropertyOp52
 70
     0
102
RTVSPropertyOp53
 70
     0
102
RTVSPropertyOp54
 70
     0
102
RTVSPropertyOp55
 70
     0
102
RTVSPropertyOp56
 70
     0
102
RTVSPropertyOp57
 70
     0
102
RTVSPropertyOp58
 70
     0
102
RTVSPropertyOp59
 70
     0
102
RTVSPropertyOp60
 70
     0
102
RTVSPropertyOp61
 70
     0
102
RTVSPropertyOp62
 70
     0
  0
XRECORD
  5
146E
102
{ACAD_REACTORS
330
146D
102
}
330
146D
100
AcDbXrecord
280
     1
102
RTVSPost2010Prop28
280
     0
102
RTVSPost2010PropOp28
 70
     1
102
RTVSPost2010Prop29
280
     1
102
RTVSPost2010PropOp29
 70
     1
102
RTVSPost2010Prop30
280
     1
102
RTVSPost2010PropOp30
 70
     1
102
RTVSPost2010Prop31
280
     0
102
RTVSPost2010PropOp31
 70
     1
102
RTVSPost2010Prop32
280
     0
102
RTVSPost2010PropOp32
 70
     1
102
RTVSPost2010Prop33
280
     0
102
RTVSPost2010PropOp33
 70
     1
102
RTVSPost2010Prop34
280
     0
102
RTVSPost2010PropOp34
 70
     1
102
RTVSPost2010Prop35
280
     0
102
RTVSPost2010PropOp35
 70
     1
102
RTVSPost2010Prop36
280
     0
102
RTVSPost2010PropOp36
 70
     1
102
RTVSPost2010Prop37
 90
       50
102
RTVSPost2010PropOp37
 70
     1
102
RTVSPost2010Prop38
140
0.0
102
RTVSPost2010PropOp38
 70
     1
102
RTVSPost2010Prop39
140
1.0
102
RTVSPost2010PropOp39
 70
     1
102
RTVSPost2010Prop40
 90
        0
102
RTVSPost2010PropOp40
 70
     1
102
RTVSPost2010Prop41ColorIndex
 90
       18
102
RTVSPost2010Prop41ColorRGB
 90
        0
102
RTVSPost2010PropOp41
 70
     1
102
RTVSPost2010Prop42
 90
       50
102
RTVSPost2010PropOp42
 70
     1
102
RTVSPost2010Prop43
 90
        3
102
RTVSPost2010PropOp43
 70
     1
102
RTVSPost2010Prop44ColorIndex
 90
        5
102
RTVSPost2010Prop44ColorRGB
 90
      255
102
RTVSPost2010PropOp44
 70
     1
102
RTVSPost2010Prop45
280
     0
102
RTVSPost2010PropOp45
 70
     1
102
RTVSPost2010Prop46
 90
       50
102
RTVSPost2010PropOp46
 70
     1
102
RTVSPost2010Prop47
 90
       50
102
RTVSPost2010PropOp47
 70
     1
102
RTVSPost2010Prop48
 90
       50
102
RTVSPost2010PropOp48
 70
     1
102
RTVSPost2010Prop49
280
     0
102
RTVSPost2010PropOp49
 70
     1
102
RTVSPost2010Prop50
 90
       50
102
RTVSPost2010PropOp50
 70
     1
102
RTVSPost2010Prop51ColorIndex
 90
      256
102
RTVSPost2010Prop51ColorRGB
 90
-16777216
102
RTVSPost2010PropOp51
 70
     0
102
RTVSPost2010Prop52
140
1.0
102
RTVSPost2010PropOp52
 70
     0
102
RTVSPost2010Prop53
 90
        2
102
RTVSPost2010PropOp53
 70
     1
102
RTVSPost2010Prop54
  1
strokes_ogs.tif
102
RTVSPost2010PropOp54
 70
     1
102
RTVSPost2010Prop55
280
     0
102
RTVSPost2010PropOp55
 70
     1
102
RTVSPost2010Prop56
140
1.0
102
RTVSPost2010PropOp56
 70
     1
102
RTVSPost2010Prop57
140
1.0
102
RTVSPost2010PropOp57
 70
     1
102
RTVSPropertyOp0
 70
     1
102
RTVSPropertyOp1
 70
     1
102
RTVSPropertyOp2
 70
     1
102
RTVSPropertyOp3
 70
     1
102
RTVSPropertyOp4
 70
     1
102
RTVSPropertyOp5
 70
     1
102
RTVSPropertyOp6
 70
     1
102
RTVSPropertyOp7
 70
     1
102
RTVSPropertyOp8
 70
     1
102
RTVSPropertyOp9
 70
     1
102
RTVSPropertyOp10
 70
     1
102
RTVSPropertyOp11
 70
     1
102
RTVSPropertyOp12
 70
     1
102
RTVSPropertyOp13
 70
     1
102
RTVSPropertyOp14
 70
     1
102
RTVSPropertyOp15
 70
     1
102
RTVSPropertyOp16
 70
     1
102
RTVSPropertyOp17
 70
     1
102
RTVSPropertyOp18
 70
     1
102
RTVSPropertyOp19
 70
     1
102
RTVSPropertyOp20
 70
     1
102
RTVSPropertyOp21
 70
     1
102
RTVSPropertyOp22
 70
     1
102
RTVSPropertyOp23
 70
     1
102
RTVSPropertyOp24
 70
     1
102
RTVSPropertyOp25
 70
     1
102
RTVSPropertyOp26
 70
     1
102
RTVSPropertyOp27
 70
     1
102
RTVSPropertyOp28
 70
     1
102
RTVSPropertyOp29
 70
     1
102
RTVSPropertyOp30
 70
     1
102
RTVSPropertyOp31
 70
     1
102
RTVSPropertyOp32
 70
     1
102
RTVSPropertyOp33
 70
     1
102
RTVSPropertyOp34
 70
     1
102
RTVSPropertyOp35
 70
     1
102
RTVSPropertyOp36
 70
     1
102
RTVSPropertyOp37
 70
     1
102
RTVSPropertyOp38
 70
     1
102
RTVSPropertyOp39
 70
     1
102
RTVSPropertyOp40
 70
     1
102
RTVSPropertyOp41
 70
     1
102
RTVSPropertyOp42
 70
     1
102
RTVSPropertyOp43
 70
     1
102
RTVSPropertyOp44
 70
     1
102
RTVSPropertyOp45
 70
     1
102
RTVSPropertyOp46
 70
     1
102
RTVSPropertyOp47
 70
     1
102
RTVSPropertyOp48
 70
     1
102
RTVSPropertyOp49
 70
     1
102
RTVSPropertyOp50
 70
     1
102
RTVSPropertyOp51
 70
     0
102
RTVSPropertyOp52
 70
     0
102
RTVSPropertyOp53
 70
     1
102
RTVSPropertyOp54
 70
     1
102
RTVSPropertyOp55
 70
     1
102
RTVSPropertyOp56
 70
     1
102
RTVSPropertyOp57
 70
     1
102
RTVSPropertyOp58
 70
     1
102
RTVSPropertyOp59
 70
     1
102
RTVSPropertyOp60
 70
     1
102
RTVSPropertyOp61
 70
     1
102
RTVSPropertyOp62
 70
     1
  0
XRECORD
  5
1484
102
{ACAD_REACTORS
330
1483
102
}
330
1483
100
AcDbXrecord
280
     1
102
RTVSPost2010Prop28
280
     0
102
RTVSPost2010PropOp28
 70
     1
102
RTVSPost2010Prop29
280
     1
102
RTVSPost2010PropOp29
 70
     1
102
RTVSPost2010Prop30
280
     1
102
RTVSPost2010PropOp30
 70
     1
102
RTVSPost2010Prop31
280
     0
102
RTVSPost2010PropOp31
 70
     1
102
RTVSPost2010Prop32
280
     0
102
RTVSPost2010PropOp32
 70
     1
102
RTVSPost2010Prop33
280
     0
102
RTVSPost2010PropOp33
 70
     1
102
RTVSPost2010Prop34
280
     0
102
RTVSPost2010PropOp34
 70
     1
102
RTVSPost2010Prop35
280
     0
102
RTVSPost2010PropOp35
 70
     1
102
RTVSPost2010Prop36
280
     0
102
RTVSPost2010PropOp36
 70
     1
102
RTVSPost2010Prop37
 90
       50
102
RTVSPost2010PropOp37
 70
     1
102
RTVSPost2010Prop38
140
0.0
102
RTVSPost2010PropOp38
 70
     1
102
RTVSPost2010Prop39
140
1.0
102
RTVSPost2010PropOp39
 70
     1
102
RTVSPost2010Prop40
 90
        0
102
RTVSPost2010PropOp40
 70
     1
102
RTVSPost2010Prop41ColorIndex
 90
       18
102
RTVSPost2010Prop41ColorRGB
 90
        0
102
RTVSPost2010PropOp41
 70
     1
102
RTVSPost2010Prop42
 90
       50
102
RTVSPost2010PropOp42
 70
     1
102
RTVSPost2010Prop43
 90
        3
102
RTVSPost2010PropOp43
 70
     1
102
RTVSPost2010Prop44ColorIndex
 90
        5
102
RTVSPost2010Prop44ColorRGB
 90
      255
102
RTVSPost2010PropOp44
 70
     1
102
RTVSPost2010Prop45
280
     0
102
RTVSPost2010PropOp45
 70
     1
102
RTVSPost2010Prop46
 90
       50
102
RTVSPost2010PropOp46
 70
     1
102
RTVSPost2010Prop47
 90
       50
102
RTVSPost2010PropOp47
 70
     1
102
RTVSPost2010Prop48
 90
       50
102
RTVSPost2010PropOp48
 70
     1
102
RTVSPost2010Prop49
280
     0
102
RTVSPost2010PropOp49
 70
     1
102
RTVSPost2010Prop50
 90
       50
102
RTVSPost2010PropOp50
 70
     1
102
RTVSPost2010Prop51ColorIndex
 90
      256
102
RTVSPost2010Prop51ColorRGB
 90
-16777216
102
RTVSPost2010PropOp51
 70
     0
102
RTVSPost2010Prop52
140
1.0
102
RTVSPost2010PropOp52
 70
     0
102
RTVSPost2010Prop53
 90
        2
102
RTVSPost2010PropOp53
 70
     1
102
RTVSPost2010Prop54
  1
strokes_ogs.tif
102
RTVSPost2010PropOp54
 70
     1
102
RTVSPost2010Prop55
280
     0
102
RTVSPost2010PropOp55
 70
     1
102
RTVSPost2010Prop56
140
1.0
102
RTVSPost2010PropOp56
 70
     1
102
RTVSPost2010Prop57
140
1.0
102
RTVSPost2010PropOp57
 70
     1
102
RTVSPropertyOp0
 70
     1
102
RTVSPropertyOp1
 70
     1
102
RTVSPropertyOp2
 70
     1
102
RTVSPropertyOp3
 70
     1
102
RTVSPropertyOp4
 70
     1
102
RTVSPropertyOp5
 70
     1
102
RTVSPropertyOp6
 70
     1
102
RTVSPropertyOp7
 70
     1
102
RTVSPropertyOp8
 70
     1
102
RTVSPropertyOp9
 70
     1
102
RTVSPropertyOp10
 70
     1
102
RTVSPropertyOp11
 70
     1
102
RTVSPropertyOp12
 70
     1
102
RTVSPropertyOp13
 70
     1
102
RTVSPropertyOp14
 70
     1
102
RTVSPropertyOp15
 70
     1
102
RTVSPropertyOp16
 70
     1
102
RTVSPropertyOp17
 70
     1
102
RTVSPropertyOp18
 70
     1
102
RTVSPropertyOp19
 70
     1
102
RTVSPropertyOp20
 70
     1
102
RTVSPropertyOp21
 70
     1
102
RTVSPropertyOp22
 70
     1
102
RTVSPropertyOp23
 70
     1
102
RTVSPropertyOp24
 70
     1
102
RTVSPropertyOp25
 70
     1
102
RTVSPropertyOp26
 70
     1
102
RTVSPropertyOp27
 70
     1
102
RTVSPropertyOp28
 70
     1
102
RTVSPropertyOp29
 70
     1
102
RTVSPropertyOp30
 70
     1
102
RTVSPropertyOp31
 70
     1
102
RTVSPropertyOp32
 70
     1
102
RTVSPropertyOp33
 70
     1
102
RTVSPropertyOp34
 70
     1
102
RTVSPropertyOp35
 70
     1
102
RTVSPropertyOp36
 70
     1
102
RTVSPropertyOp37
 70
     1
102
RTVSPropertyOp38
 70
     1
102
RTVSPropertyOp39
 70
     1
102
RTVSPropertyOp40
 70
     1
102
RTVSPropertyOp41
 70
     1
102
RTVSPropertyOp42
 70
     1
102
RTVSPropertyOp43
 70
     1
102
RTVSPropertyOp44
 70
     1
102
RTVSPropertyOp45
 70
     1
102
RTVSPropertyOp46
 70
     1
102
RTVSPropertyOp47
 70
     1
102
RTVSPropertyOp48
 70
     1
102
RTVSPropertyOp49
 70
     1
102
RTVSPropertyOp50
 70
     1
102
RTVSPropertyOp51
 70
     0
102
RTVSPropertyOp52
 70
     0
102
RTVSPropertyOp53
 70
     1
102
RTVSPropertyOp54
 70
     1
102
RTVSPropertyOp55
 70
     1
102
RTVSPropertyOp56
 70
     1
102
RTVSPropertyOp57
 70
     1
102
RTVSPropertyOp58
 70
     1
102
RTVSPropertyOp59
 70
     1
102
RTVSPropertyOp60
 70
     1
102
RTVSPropertyOp61
 70
     1
102
RTVSPropertyOp62
 70
     1
  0
XRECORD
  5
1482
102
{ACAD_REACTORS
330
1481
102
}
330
1481
100
AcDbXrecord
280
     1
102
RTVSPost2010Prop28
280
     0
102
RTVSPost2010PropOp28
 70
     1
102
RTVSPost2010Prop29
280
     1
102
RTVSPost2010PropOp29
 70
     1
102
RTVSPost2010Prop30
280
     1
102
RTVSPost2010PropOp30
 70
     1
102
RTVSPost2010Prop31
280
     0
102
RTVSPost2010PropOp31
 70
     1
102
RTVSPost2010Prop32
280
     0
102
RTVSPost2010PropOp32
 70
     1
102
RTVSPost2010Prop33
280
     0
102
RTVSPost2010PropOp33
 70
     1
102
RTVSPost2010Prop34
280
     0
102
RTVSPost2010PropOp34
 70
     1
102
RTVSPost2010Prop35
280
     0
102
RTVSPost2010PropOp35
 70
     1
102
RTVSPost2010Prop36
280
     0
102
RTVSPost2010PropOp36
 70
     1
102
RTVSPost2010Prop37
 90
       50
102
RTVSPost2010PropOp37
 70
     1
102
RTVSPost2010Prop38
140
0.0
102
RTVSPost2010PropOp38
 70
     1
102
RTVSPost2010Prop39
140
1.0
102
RTVSPost2010PropOp39
 70
     1
102
RTVSPost2010Prop40
 90
        0
102
RTVSPost2010PropOp40
 70
     1
102
RTVSPost2010Prop41ColorIndex
 90
       18
102
RTVSPost2010Prop41ColorRGB
 90
        0
102
RTVSPost2010PropOp41
 70
     1
102
RTVSPost2010Prop42
 90
       50
102
RTVSPost2010PropOp42
 70
     1
102
RTVSPost2010Prop43
 90
        3
102
RTVSPost2010PropOp43
 70
     1
102
RTVSPost2010Prop44ColorIndex
 90
        5
102
RTVSPost2010Prop44ColorRGB
 90
      255
102
RTVSPost2010PropOp44
 70
     1
102
RTVSPost2010Prop45
280
     0
102
RTVSPost2010PropOp45
 70
     1
102
RTVSPost2010Prop46
 90
       50
102
RTVSPost2010PropOp46
 70
     1
102
RTVSPost2010Prop47
 90
       50
102
RTVSPost2010PropOp47
 70
     1
102
RTVSPost2010Prop48
 90
       50
102
RTVSPost2010PropOp48
 70
     1
102
RTVSPost2010Prop49
280
     0
102
RTVSPost2010PropOp49
 70
     1
102
RTVSPost2010Prop50
 90
       50
102
RTVSPost2010PropOp50
 70
     1
102
RTVSPost2010Prop51ColorIndex
 90
      256
102
RTVSPost2010Prop51ColorRGB
 90
-16777216
102
RTVSPost2010PropOp51
 70
     0
102
RTVSPost2010Prop52
140
1.0
102
RTVSPost2010PropOp52
 70
     0
102
RTVSPost2010Prop53
 90
        2
102
RTVSPost2010PropOp53
 70
     1
102
RTVSPost2010Prop54
  1
strokes_ogs.tif
102
RTVSPost2010PropOp54
 70
     1
102
RTVSPost2010Prop55
280
     0
102
RTVSPost2010PropOp55
 70
     1
102
RTVSPost2010Prop56
140
1.0
102
RTVSPost2010PropOp56
 70
     1
102
RTVSPost2010Prop57
140
1.0
102
RTVSPost2010PropOp57
 70
     1
102
RTVSPropertyOp0
 70
     1
102
RTVSPropertyOp1
 70
     1
102
RTVSPropertyOp2
 70
     1
102
RTVSPropertyOp3
 70
     1
102
RTVSPropertyOp4
 70
     1
102
RTVSPropertyOp5
 70
     1
102
RTVSPropertyOp6
 70
     1
102
RTVSPropertyOp7
 70
     1
102
RTVSPropertyOp8
 70
     1
102
RTVSPropertyOp9
 70
     1
102
RTVSPropertyOp10
 70
     1
102
RTVSPropertyOp11
 70
     1
102
RTVSPropertyOp12
 70
     1
102
RTVSPropertyOp13
 70
     1
102
RTVSPropertyOp14
 70
     1
102
RTVSPropertyOp15
 70
     1
102
RTVSPropertyOp16
 70
     1
102
RTVSPropertyOp17
 70
     1
102
RTVSPropertyOp18
 70
     1
102
RTVSPropertyOp19
 70
     1
102
RTVSPropertyOp20
 70
     1
102
RTVSPropertyOp21
 70
     1
102
RTVSPropertyOp22
 70
     1
102
RTVSPropertyOp23
 70
     1
102
RTVSPropertyOp24
 70
     1
102
RTVSPropertyOp25
 70
     1
102
RTVSPropertyOp26
 70
     1
102
RTVSPropertyOp27
 70
     1
102
RTVSPropertyOp28
 70
     1
102
RTVSPropertyOp29
 70
     1
102
RTVSPropertyOp30
 70
     1
102
RTVSPropertyOp31
 70
     1
102
RTVSPropertyOp32
 70
     1
102
RTVSPropertyOp33
 70
     1
102
RTVSPropertyOp34
 70
     1
102
RTVSPropertyOp35
 70
     1
102
RTVSPropertyOp36
 70
     1
102
RTVSPropertyOp37
 70
     1
102
RTVSPropertyOp38
 70
     1
102
RTVSPropertyOp39
 70
     1
102
RTVSPropertyOp40
 70
     1
102
RTVSPropertyOp41
 70
     1
102
RTVSPropertyOp42
 70
     1
102
RTVSPropertyOp43
 70
     1
102
RTVSPropertyOp44
 70
     1
102
RTVSPropertyOp45
 70
     1
102
RTVSPropertyOp46
 70
     1
102
RTVSPropertyOp47
 70
     1
102
RTVSPropertyOp48
 70
     1
102
RTVSPropertyOp49
 70
     1
102
RTVSPropertyOp50
 70
     1
102
RTVSPropertyOp51
 70
     0
102
RTVSPropertyOp52
 70
     0
102
RTVSPropertyOp53
 70
     1
102
RTVSPropertyOp54
 70
     1
102
RTVSPropertyOp55
 70
     1
102
RTVSPropertyOp56
 70
     1
102
RTVSPropertyOp57
 70
     1
102
RTVSPropertyOp58
 70
     1
102
RTVSPropertyOp59
 70
     1
102
RTVSPropertyOp60
 70
     1
102
RTVSPropertyOp61
 70
     1
102
RTVSPropertyOp62
 70
     1
  0
XRECORD
  5
147C
102
{ACAD_REACTORS
330
147B
102
}
330
147B
100
AcDbXrecord
280
     1
102
RTVSPost2010Prop28
280
     0
102
RTVSPost2010PropOp28
 70
     1
102
RTVSPost2010Prop29
280
     1
102
RTVSPost2010PropOp29
 70
     1
102
RTVSPost2010Prop30
280
     1
102
RTVSPost2010PropOp30
 70
     1
102
RTVSPost2010Prop31
280
     0
102
RTVSPost2010PropOp31
 70
     1
102
RTVSPost2010Prop32
280
     0
102
RTVSPost2010PropOp32
 70
     1
102
RTVSPost2010Prop33
280
     0
102
RTVSPost2010PropOp33
 70
     1
102
RTVSPost2010Prop34
280
     0
102
RTVSPost2010PropOp34
 70
     1
102
RTVSPost2010Prop35
280
     0
102
RTVSPost2010PropOp35
 70
     1
102
RTVSPost2010Prop36
280
     0
102
RTVSPost2010PropOp36
 70
     1
102
RTVSPost2010Prop37
 90
       50
102
RTVSPost2010PropOp37
 70
     1
102
RTVSPost2010Prop38
140
0.0
102
RTVSPost2010PropOp38
 70
     1
102
RTVSPost2010Prop39
140
1.0
102
RTVSPost2010PropOp39
 70
     1
102
RTVSPost2010Prop40
 90
        0
102
RTVSPost2010PropOp40
 70
     1
102
RTVSPost2010Prop41ColorIndex
 90
       18
102
RTVSPost2010Prop41ColorRGB
 90
        0
102
RTVSPost2010PropOp41
 70
     1
102
RTVSPost2010Prop42
 90
       50
102
RTVSPost2010PropOp42
 70
     1
102
RTVSPost2010Prop43
 90
        3
102
RTVSPost2010PropOp43
 70
     1
102
RTVSPost2010Prop44ColorIndex
 90
        5
102
RTVSPost2010Prop44ColorRGB
 90
      255
102
RTVSPost2010PropOp44
 70
     1
102
RTVSPost2010Prop45
280
     0
102
RTVSPost2010PropOp45
 70
     1
102
RTVSPost2010Prop46
 90
       50
102
RTVSPost2010PropOp46
 70
     1
102
RTVSPost2010Prop47
 90
       50
102
RTVSPost2010PropOp47
 70
     1
102
RTVSPost2010Prop48
 90
       50
102
RTVSPost2010PropOp48
 70
     1
102
RTVSPost2010Prop49
280
     0
102
RTVSPost2010PropOp49
 70
     1
102
RTVSPost2010Prop50
 90
       50
102
RTVSPost2010PropOp50
 70
     1
102
RTVSPost2010Prop51ColorIndex
 90
      256
102
RTVSPost2010Prop51ColorRGB
 90
-16777216
102
RTVSPost2010PropOp51
 70
     0
102
RTVSPost2010Prop52
140
1.0
102
RTVSPost2010PropOp52
 70
     0
102
RTVSPost2010Prop53
 90
        2
102
RTVSPost2010PropOp53
 70
     1
102
RTVSPost2010Prop54
  1
strokes_ogs.tif
102
RTVSPost2010PropOp54
 70
     1
102
RTVSPost2010Prop55
280
     0
102
RTVSPost2010PropOp55
 70
     1
102
RTVSPost2010Prop56
140
1.0
102
RTVSPost2010PropOp56
 70
     1
102
RTVSPost2010Prop57
140
1.0
102
RTVSPost2010PropOp57
 70
     1
102
RTVSPropertyOp0
 70
     1
102
RTVSPropertyOp1
 70
     1
102
RTVSPropertyOp2
 70
     1
102
RTVSPropertyOp3
 70
     1
102
RTVSPropertyOp4
 70
     1
102
RTVSPropertyOp5
 70
     1
102
RTVSPropertyOp6
 70
     1
102
RTVSPropertyOp7
 70
     1
102
RTVSPropertyOp8
 70
     1
102
RTVSPropertyOp9
 70
     1
102
RTVSPropertyOp10
 70
     1
102
RTVSPropertyOp11
 70
     1
102
RTVSPropertyOp12
 70
     1
102
RTVSPropertyOp13
 70
     1
102
RTVSPropertyOp14
 70
     1
102
RTVSPropertyOp15
 70
     1
102
RTVSPropertyOp16
 70
     1
102
RTVSPropertyOp17
 70
     1
102
RTVSPropertyOp18
 70
     1
102
RTVSPropertyOp19
 70
     1
102
RTVSPropertyOp20
 70
     1
102
RTVSPropertyOp21
 70
     1
102
RTVSPropertyOp22
 70
     1
102
RTVSPropertyOp23
 70
     1
102
RTVSPropertyOp24
 70
     1
102
RTVSPropertyOp25
 70
     1
102
RTVSPropertyOp26
 70
     1
102
RTVSPropertyOp27
 70
     1
102
RTVSPropertyOp28
 70
     1
102
RTVSPropertyOp29
 70
     1
102
RTVSPropertyOp30
 70
     1
102
RTVSPropertyOp31
 70
     1
102
RTVSPropertyOp32
 70
     1
102
RTVSPropertyOp33
 70
     1
102
RTVSPropertyOp34
 70
     1
102
RTVSPropertyOp35
 70
     1
102
RTVSPropertyOp36
 70
     1
102
RTVSPropertyOp37
 70
     1
102
RTVSPropertyOp38
 70
     1
102
RTVSPropertyOp39
 70
     1
102
RTVSPropertyOp40
 70
     1
102
RTVSPropertyOp41
 70
     1
102
RTVSPropertyOp42
 70
     1
102
RTVSPropertyOp43
 70
     1
102
RTVSPropertyOp44
 70
     1
102
RTVSPropertyOp45
 70
     1
102
RTVSPropertyOp46
 70
     1
102
RTVSPropertyOp47
 70
     1
102
RTVSPropertyOp48
 70
     1
102
RTVSPropertyOp49
 70
     1
102
RTVSPropertyOp50
 70
     1
102
RTVSPropertyOp51
 70
     0
102
RTVSPropertyOp52
 70
     0
102
RTVSPropertyOp53
 70
     1
102
RTVSPropertyOp54
 70
     1
102
RTVSPropertyOp55
 70
     1
102
RTVSPropertyOp56
 70
     1
102
RTVSPropertyOp57
 70
     1
102
RTVSPropertyOp58
 70
     1
102
RTVSPropertyOp59
 70
     1
102
RTVSPropertyOp60
 70
     1
102
RTVSPropertyOp61
 70
     1
102
RTVSPropertyOp62
 70
     1
  0
XRECORD
  5
147E
102
{ACAD_REACTORS
330
147D
102
}
330
147D
100
AcDbXrecord
280
     1
102
RTVSPost2010Prop28
280
     0
102
RTVSPost2010PropOp28
 70
     1
102
RTVSPost2010Prop29
280
     1
102
RTVSPost2010PropOp29
 70
     1
102
RTVSPost2010Prop30
280
     1
102
RTVSPost2010PropOp30
 70
     1
102
RTVSPost2010Prop31
280
     0
102
RTVSPost2010PropOp31
 70
     1
102
RTVSPost2010Prop32
280
     0
102
RTVSPost2010PropOp32
 70
     1
102
RTVSPost2010Prop33
280
     0
102
RTVSPost2010PropOp33
 70
     1
102
RTVSPost2010Prop34
280
     0
102
RTVSPost2010PropOp34
 70
     1
102
RTVSPost2010Prop35
280
     0
102
RTVSPost2010PropOp35
 70
     1
102
RTVSPost2010Prop36
280
     0
102
RTVSPost2010PropOp36
 70
     1
102
RTVSPost2010Prop37
 90
       50
102
RTVSPost2010PropOp37
 70
     1
102
RTVSPost2010Prop38
140
0.0
102
RTVSPost2010PropOp38
 70
     1
102
RTVSPost2010Prop39
140
1.0
102
RTVSPost2010PropOp39
 70
     1
102
RTVSPost2010Prop40
 90
        0
102
RTVSPost2010PropOp40
 70
     1
102
RTVSPost2010Prop41ColorIndex
 90
       18
102
RTVSPost2010Prop41ColorRGB
 90
        0
102
RTVSPost2010PropOp41
 70
     1
102
RTVSPost2010Prop42
 90
       50
102
RTVSPost2010PropOp42
 70
     1
102
RTVSPost2010Prop43
 90
        3
102
RTVSPost2010PropOp43
 70
     1
102
RTVSPost2010Prop44ColorIndex
 90
        5
102
RTVSPost2010Prop44ColorRGB
 90
      255
102
RTVSPost2010PropOp44
 70
     1
102
RTVSPost2010Prop45
280
     0
102
RTVSPost2010PropOp45
 70
     1
102
RTVSPost2010Prop46
 90
       50
102
RTVSPost2010PropOp46
 70
     1
102
RTVSPost2010Prop47
 90
       50
102
RTVSPost2010PropOp47
 70
     1
102
RTVSPost2010Prop48
 90
       50
102
RTVSPost2010PropOp48
 70
     1
102
RTVSPost2010Prop49
280
     0
102
RTVSPost2010PropOp49
 70
     1
102
RTVSPost2010Prop50
 90
       50
102
RTVSPost2010PropOp50
 70
     1
102
RTVSPost2010Prop51ColorIndex
 90
      256
102
RTVSPost2010Prop51ColorRGB
 90
-16777216
102
RTVSPost2010PropOp51
 70
     0
102
RTVSPost2010Prop52
140
1.0
102
RTVSPost2010PropOp52
 70
     0
102
RTVSPost2010Prop53
 90
        2
102
RTVSPost2010PropOp53
 70
     1
102
RTVSPost2010Prop54
  1
strokes_ogs.tif
102
RTVSPost2010PropOp54
 70
     1
102
RTVSPost2010Prop55
280
     0
102
RTVSPost2010PropOp55
 70
     1
102
RTVSPost2010Prop56
140
1.0
102
RTVSPost2010PropOp56
 70
     1
102
RTVSPost2010Prop57
140
1.0
102
RTVSPost2010PropOp57
 70
     1
102
RTVSPropertyOp0
 70
     1
102
RTVSPropertyOp1
 70
     1
102
RTVSPropertyOp2
 70
     1
102
RTVSPropertyOp3
 70
     1
102
RTVSPropertyOp4
 70
     1
102
RTVSPropertyOp5
 70
     1
102
RTVSPropertyOp6
 70
     1
102
RTVSPropertyOp7
 70
     1
102
RTVSPropertyOp8
 70
     1
102
RTVSPropertyOp9
 70
     1
102
RTVSPropertyOp10
 70
     1
102
RTVSPropertyOp11
 70
     1
102
RTVSPropertyOp12
 70
     1
102
RTVSPropertyOp13
 70
     1
102
RTVSPropertyOp14
 70
     1
102
RTVSPropertyOp15
 70
     1
102
RTVSPropertyOp16
 70
     1
102
RTVSPropertyOp17
 70
     1
102
RTVSPropertyOp18
 70
     1
102
RTVSPropertyOp19
 70
     1
102
RTVSPropertyOp20
 70
     1
102
RTVSPropertyOp21
 70
     1
102
RTVSPropertyOp22
 70
     1
102
RTVSPropertyOp23
 70
     1
102
RTVSPropertyOp24
 70
     1
102
RTVSPropertyOp25
 70
     1
102
RTVSPropertyOp26
 70
     1
102
RTVSPropertyOp27
 70
     1
102
RTVSPropertyOp28
 70
     1
102
RTVSPropertyOp29
 70
     1
102
RTVSPropertyOp30
 70
     1
102
RTVSPropertyOp31
 70
     1
102
RTVSPropertyOp32
 70
     1
102
RTVSPropertyOp33
 70
     1
102
RTVSPropertyOp34
 70
     1
102
RTVSPropertyOp35
 70
     1
102
RTVSPropertyOp36
 70
     1
102
RTVSPropertyOp37
 70
     1
102
RTVSPropertyOp38
 70
     1
102
RTVSPropertyOp39
 70
     1
102
RTVSPropertyOp40
 70
     1
102
RTVSPropertyOp41
 70
     1
102
RTVSPropertyOp42
 70
     1
102
RTVSPropertyOp43
 70
     1
102
RTVSPropertyOp44
 70
     1
102
RTVSPropertyOp45
 70
     1
102
RTVSPropertyOp46
 70
     1
102
RTVSPropertyOp47
 70
     1
102
RTVSPropertyOp48
 70
     1
102
RTVSPropertyOp49
 70
     1
102
RTVSPropertyOp50
 70
     1
102
RTVSPropertyOp51
 70
     0
102
RTVSPropertyOp52
 70
     0
102
RTVSPropertyOp53
 70
     1
102
RTVSPropertyOp54
 70
     1
102
RTVSPropertyOp55
 70
     1
102
RTVSPropertyOp56
 70
     1
102
RTVSPropertyOp57
 70
     1
102
RTVSPropertyOp58
 70
     1
102
RTVSPropertyOp59
 70
     1
102
RTVSPropertyOp60
 70
     1
102
RTVSPropertyOp61
 70
     1
102
RTVSPropertyOp62
 70
     1
  0
XRECORD
  5
1474
102
{ACAD_REACTORS
330
1473
102
}
330
1473
100
AcDbXrecord
280
     1
102
RTVSPost2010Prop28
280
     0
102
RTVSPost2010PropOp28
 70
     1
102
RTVSPost2010Prop29
280
     1
102
RTVSPost2010PropOp29
 70
     1
102
RTVSPost2010Prop30
280
     1
102
RTVSPost2010PropOp30
 70
     1
102
RTVSPost2010Prop31
280
     0
102
RTVSPost2010PropOp31
 70
     1
102
RTVSPost2010Prop32
280
     0
102
RTVSPost2010PropOp32
 70
     1
102
RTVSPost2010Prop33
280
     0
102
RTVSPost2010PropOp33
 70
     1
102
RTVSPost2010Prop34
280
     0
102
RTVSPost2010PropOp34
 70
     1
102
RTVSPost2010Prop35
280
     0
102
RTVSPost2010PropOp35
 70
     1
102
RTVSPost2010Prop36
280
     0
102
RTVSPost2010PropOp36
 70
     1
102
RTVSPost2010Prop37
 90
       50
102
RTVSPost2010PropOp37
 70
     1
102
RTVSPost2010Prop38
140
0.0
102
RTVSPost2010PropOp38
 70
     1
102
RTVSPost2010Prop39
140
1.0
102
RTVSPost2010PropOp39
 70
     1
102
RTVSPost2010Prop40
 90
        0
102
RTVSPost2010PropOp40
 70
     1
102
RTVSPost2010Prop41ColorIndex
 90
       18
102
RTVSPost2010Prop41ColorRGB
 90
        0
102
RTVSPost2010PropOp41
 70
     1
102
RTVSPost2010Prop42
 90
       50
102
RTVSPost2010PropOp42
 70
     1
102
RTVSPost2010Prop43
 90
        3
102
RTVSPost2010PropOp43
 70
     1
102
RTVSPost2010Prop44ColorIndex
 90
        5
102
RTVSPost2010Prop44ColorRGB
 90
      255
102
RTVSPost2010PropOp44
 70
     1
102
RTVSPost2010Prop45
280
     0
102
RTVSPost2010PropOp45
 70
     1
102
RTVSPost2010Prop46
 90
       50
102
RTVSPost2010PropOp46
 70
     1
102
RTVSPost2010Prop47
 90
       50
102
RTVSPost2010PropOp47
 70
     1
102
RTVSPost2010Prop48
 90
       50
102
RTVSPost2010PropOp48
 70
     1
102
RTVSPost2010Prop49
280
     0
102
RTVSPost2010PropOp49
 70
     1
102
RTVSPost2010Prop50
 90
       50
102
RTVSPost2010PropOp50
 70
     1
102
RTVSPost2010Prop51ColorIndex
 90
      256
102
RTVSPost2010Prop51ColorRGB
 90
-16777216
102
RTVSPost2010PropOp51
 70
     0
102
RTVSPost2010Prop52
140
1.0
102
RTVSPost2010PropOp52
 70
     0
102
RTVSPost2010Prop53
 90
        2
102
RTVSPost2010PropOp53
 70
     1
102
RTVSPost2010Prop54
  1
strokes_ogs.tif
102
RTVSPost2010PropOp54
 70
     1
102
RTVSPost2010Prop55
280
     0
102
RTVSPost2010PropOp55
 70
     1
102
RTVSPost2010Prop56
140
1.0
102
RTVSPost2010PropOp56
 70
     1
102
RTVSPost2010Prop57
140
1.0
102
RTVSPost2010PropOp57
 70
     1
102
RTVSPropertyOp0
 70
     1
102
RTVSPropertyOp1
 70
     1
102
RTVSPropertyOp2
 70
     1
102
RTVSPropertyOp3
 70
     1
102
RTVSPropertyOp4
 70
     1
102
RTVSPropertyOp5
 70
     1
102
RTVSPropertyOp6
 70
     1
102
RTVSPropertyOp7
 70
     1
102
RTVSPropertyOp8
 70
     1
102
RTVSPropertyOp9
 70
     1
102
RTVSPropertyOp10
 70
     1
102
RTVSPropertyOp11
 70
     1
102
RTVSPropertyOp12
 70
     1
102
RTVSPropertyOp13
 70
     1
102
RTVSPropertyOp14
 70
     1
102
RTVSPropertyOp15
 70
     1
102
RTVSPropertyOp16
 70
     1
102
RTVSPropertyOp17
 70
     1
102
RTVSPropertyOp18
 70
     1
102
RTVSPropertyOp19
 70
     1
102
RTVSPropertyOp20
 70
     1
102
RTVSPropertyOp21
 70
     1
102
RTVSPropertyOp22
 70
     1
102
RTVSPropertyOp23
 70
     1
102
RTVSPropertyOp24
 70
     1
102
RTVSPropertyOp25
 70
     1
102
RTVSPropertyOp26
 70
     1
102
RTVSPropertyOp27
 70
     1
102
RTVSPropertyOp28
 70
     1
102
RTVSPropertyOp29
 70
     1
102
RTVSPropertyOp30
 70
     1
102
RTVSPropertyOp31
 70
     1
102
RTVSPropertyOp32
 70
     1
102
RTVSPropertyOp33
 70
     1
102
RTVSPropertyOp34
 70
     1
102
RTVSPropertyOp35
 70
     1
102
RTVSPropertyOp36
 70
     1
102
RTVSPropertyOp37
 70
     1
102
RTVSPropertyOp38
 70
     1
102
RTVSPropertyOp39
 70
     1
102
RTVSPropertyOp40
 70
     1
102
RTVSPropertyOp41
 70
     1
102
RTVSPropertyOp42
 70
     1
102
RTVSPropertyOp43
 70
     1
102
RTVSPropertyOp44
 70
     1
102
RTVSPropertyOp45
 70
     1
102
RTVSPropertyOp46
 70
     1
102
RTVSPropertyOp47
 70
     1
102
RTVSPropertyOp48
 70
     1
102
RTVSPropertyOp49
 70
     1
102
RTVSPropertyOp50
 70
     1
102
RTVSPropertyOp51
 70
     0
102
RTVSPropertyOp52
 70
     0
102
RTVSPropertyOp53
 70
     1
102
RTVSPropertyOp54
 70
     1
102
RTVSPropertyOp55
 70
     1
102
RTVSPropertyOp56
 70
     1
102
RTVSPropertyOp57
 70
     1
102
RTVSPropertyOp58
 70
     1
102
RTVSPropertyOp59
 70
     1
102
RTVSPropertyOp60
 70
     1
102
RTVSPropertyOp61
 70
     1
102
RTVSPropertyOp62
 70
     1
  0
XRECORD
  5
1468
102
{ACAD_REACTORS
330
1467
102
}
330
1467
100
AcDbXrecord
280
     1
102
RTVSPost2010Prop28
280
     0
102
RTVSPost2010PropOp28
 70
     1
102
RTVSPost2010Prop29
280
     1
102
RTVSPost2010PropOp29
 70
     1
102
RTVSPost2010Prop30
280
     1
102
RTVSPost2010PropOp30
 70
     1
102
RTVSPost2010Prop31
280
     0
102
RTVSPost2010PropOp31
 70
     1
102
RTVSPost2010Prop32
280
     0
102
RTVSPost2010PropOp32
 70
     1
102
RTVSPost2010Prop33
280
     0
102
RTVSPost2010PropOp33
 70
     1
102
RTVSPost2010Prop34
280
     0
102
RTVSPost2010PropOp34
 70
     1
102
RTVSPost2010Prop35
280
     0
102
RTVSPost2010PropOp35
 70
     1
102
RTVSPost2010Prop36
280
     0
102
RTVSPost2010PropOp36
 70
     1
102
RTVSPost2010Prop37
 90
       50
102
RTVSPost2010PropOp37
 70
     1
102
RTVSPost2010Prop38
140
0.0
102
RTVSPost2010PropOp38
 70
     1
102
RTVSPost2010Prop39
140
1.0
102
RTVSPost2010PropOp39
 70
     1
102
RTVSPost2010Prop40
 90
        0
102
RTVSPost2010PropOp40
 70
     1
102
RTVSPost2010Prop41ColorIndex
 90
       18
102
RTVSPost2010Prop41ColorRGB
 90
        0
102
RTVSPost2010PropOp41
 70
     1
102
RTVSPost2010Prop42
 90
       50
102
RTVSPost2010PropOp42
 70
     1
102
RTVSPost2010Prop43
 90
        3
102
RTVSPost2010PropOp43
 70
     1
102
RTVSPost2010Prop44ColorIndex
 90
        5
102
RTVSPost2010Prop44ColorRGB
 90
      255
102
RTVSPost2010PropOp44
 70
     1
102
RTVSPost2010Prop45
280
     0
102
RTVSPost2010PropOp45
 70
     1
102
RTVSPost2010Prop46
 90
       50
102
RTVSPost2010PropOp46
 70
     1
102
RTVSPost2010Prop47
 90
       50
102
RTVSPost2010PropOp47
 70
     1
102
RTVSPost2010Prop48
 90
       50
102
RTVSPost2010PropOp48
 70
     1
102
RTVSPost2010Prop49
280
     0
102
RTVSPost2010PropOp49
 70
     1
102
RTVSPost2010Prop50
 90
       50
102
RTVSPost2010PropOp50
 70
     1
102
RTVSPost2010Prop51ColorIndex
 90
      256
102
RTVSPost2010Prop51ColorRGB
 90
-16777216
102
RTVSPost2010PropOp51
 70
     0
102
RTVSPost2010Prop52
140
1.0
102
RTVSPost2010PropOp52
 70
     0
102
RTVSPost2010Prop53
 90
        2
102
RTVSPost2010PropOp53
 70
     1
102
RTVSPost2010Prop54
  1
strokes_ogs.tif
102
RTVSPost2010PropOp54
 70
     1
102
RTVSPost2010Prop55
280
     0
102
RTVSPost2010PropOp55
 70
     1
102
RTVSPost2010Prop56
140
1.0
102
RTVSPost2010PropOp56
 70
     1
102
RTVSPost2010Prop57
140
1.0
102
RTVSPost2010PropOp57
 70
     1
102
RTVSPropertyOp0
 70
     1
102
RTVSPropertyOp1
 70
     1
102
RTVSPropertyOp2
 70
     1
102
RTVSPropertyOp3
 70
     1
102
RTVSPropertyOp4
 70
     1
102
RTVSPropertyOp5
 70
     1
102
RTVSPropertyOp6
 70
     1
102
RTVSPropertyOp7
 70
     1
102
RTVSPropertyOp8
 70
     1
102
RTVSPropertyOp9
 70
     1
102
RTVSPropertyOp10
 70
     1
102
RTVSPropertyOp11
 70
     1
102
RTVSPropertyOp12
 70
     1
102
RTVSPropertyOp13
 70
     1
102
RTVSPropertyOp14
 70
     1
102
RTVSPropertyOp15
 70
     1
102
RTVSPropertyOp16
 70
     1
102
RTVSPropertyOp17
 70
     1
102
RTVSPropertyOp18
 70
     1
102
RTVSPropertyOp19
 70
     1
102
RTVSPropertyOp20
 70
     1
102
RTVSPropertyOp21
 70
     1
102
RTVSPropertyOp22
 70
     1
102
RTVSPropertyOp23
 70
     1
102
RTVSPropertyOp24
 70
     1
102
RTVSPropertyOp25
 70
     1
102
RTVSPropertyOp26
 70
     1
102
RTVSPropertyOp27
 70
     1
102
RTVSPropertyOp28
 70
     1
102
RTVSPropertyOp29
 70
     1
102
RTVSPropertyOp30
 70
     1
102
RTVSPropertyOp31
 70
     1
102
RTVSPropertyOp32
 70
     1
102
RTVSPropertyOp33
 70
     1
102
RTVSPropertyOp34
 70
     1
102
RTVSPropertyOp35
 70
     1
102
RTVSPropertyOp36
 70
     1
102
RTVSPropertyOp37
 70
     1
102
RTVSPropertyOp38
 70
     1
102
RTVSPropertyOp39
 70
     1
102
RTVSPropertyOp40
 70
     1
102
RTVSPropertyOp41
 70
     1
102
RTVSPropertyOp42
 70
     1
102
RTVSPropertyOp43
 70
     1
102
RTVSPropertyOp44
 70
     1
102
RTVSPropertyOp45
 70
     1
102
RTVSPropertyOp46
 70
     1
102
RTVSPropertyOp47
 70
     1
102
RTVSPropertyOp48
 70
     1
102
RTVSPropertyOp49
 70
     1
102
RTVSPropertyOp50
 70
     1
102
RTVSPropertyOp51
 70
     0
102
RTVSPropertyOp52
 70
     0
102
RTVSPropertyOp53
 70
     1
102
RTVSPropertyOp54
 70
     1
102
RTVSPropertyOp55
 70
     1
102
RTVSPropertyOp56
 70
     1
102
RTVSPropertyOp57
 70
     1
102
RTVSPropertyOp58
 70
     1
102
RTVSPropertyOp59
 70
     1
102
RTVSPropertyOp60
 70
     1
102
RTVSPropertyOp61
 70
     1
102
RTVSPropertyOp62
 70
     1
  0
XRECORD
  5
1480
102
{ACAD_REACTORS
330
147F
102
}
330
147F
100
AcDbXrecord
280
     1
102
RTVSPost2010Prop28
280
     0
102
RTVSPost2010PropOp28
 70
     1
102
RTVSPost2010Prop29
280
     1
102
RTVSPost2010PropOp29
 70
     1
102
RTVSPost2010Prop30
280
     1
102
RTVSPost2010PropOp30
 70
     1
102
RTVSPost2010Prop31
280
     0
102
RTVSPost2010PropOp31
 70
     1
102
RTVSPost2010Prop32
280
     0
102
RTVSPost2010PropOp32
 70
     1
102
RTVSPost2010Prop33
280
     0
102
RTVSPost2010PropOp33
 70
     1
102
RTVSPost2010Prop34
280
     0
102
RTVSPost2010PropOp34
 70
     1
102
RTVSPost2010Prop35
280
     0
102
RTVSPost2010PropOp35
 70
     1
102
RTVSPost2010Prop36
280
     0
102
RTVSPost2010PropOp36
 70
     1
102
RTVSPost2010Prop37
 90
       50
102
RTVSPost2010PropOp37
 70
     1
102
RTVSPost2010Prop38
140
0.0
102
RTVSPost2010PropOp38
 70
     1
102
RTVSPost2010Prop39
140
1.0
102
RTVSPost2010PropOp39
 70
     1
102
RTVSPost2010Prop40
 90
        0
102
RTVSPost2010PropOp40
 70
     1
102
RTVSPost2010Prop41ColorIndex
 90
       18
102
RTVSPost2010Prop41ColorRGB
 90
        0
102
RTVSPost2010PropOp41
 70
     1
102
RTVSPost2010Prop42
 90
       50
102
RTVSPost2010PropOp42
 70
     1
102
RTVSPost2010Prop43
 90
        3
102
RTVSPost2010PropOp43
 70
     1
102
RTVSPost2010Prop44ColorIndex
 90
        5
102
RTVSPost2010Prop44ColorRGB
 90
      255
102
RTVSPost2010PropOp44
 70
     1
102
RTVSPost2010Prop45
280
     0
102
RTVSPost2010PropOp45
 70
     1
102
RTVSPost2010Prop46
 90
       50
102
RTVSPost2010PropOp46
 70
     1
102
RTVSPost2010Prop47
 90
       50
102
RTVSPost2010PropOp47
 70
     1
102
RTVSPost2010Prop48
 90
       50
102
RTVSPost2010PropOp48
 70
     1
102
RTVSPost2010Prop49
280
     0
102
RTVSPost2010PropOp49
 70
     1
102
RTVSPost2010Prop50
 90
       50
102
RTVSPost2010PropOp50
 70
     1
102
RTVSPost2010Prop51ColorIndex
 90
      256
102
RTVSPost2010Prop51ColorRGB
 90
-16777216
102
RTVSPost2010PropOp51
 70
     0
102
RTVSPost2010Prop52
140
1.0
102
RTVSPost2010PropOp52
 70
     0
102
RTVSPost2010Prop53
 90
        2
102
RTVSPost2010PropOp53
 70
     1
102
RTVSPost2010Prop54
  1
strokes_ogs.tif
102
RTVSPost2010PropOp54
 70
     1
102
RTVSPost2010Prop55
280
     0
102
RTVSPost2010PropOp55
 70
     1
102
RTVSPost2010Prop56
140
1.0
102
RTVSPost2010PropOp56
 70
     1
102
RTVSPost2010Prop57
140
1.0
102
RTVSPost2010PropOp57
 70
     1
102
RTVSPropertyOp0
 70
     1
102
RTVSPropertyOp1
 70
     1
102
RTVSPropertyOp2
 70
     1
102
RTVSPropertyOp3
 70
     1
102
RTVSPropertyOp4
 70
     1
102
RTVSPropertyOp5
 70
     1
102
RTVSPropertyOp6
 70
     1
102
RTVSPropertyOp7
 70
     1
102
RTVSPropertyOp8
 70
     1
102
RTVSPropertyOp9
 70
     1
102
RTVSPropertyOp10
 70
     1
102
RTVSPropertyOp11
 70
     1
102
RTVSPropertyOp12
 70
     1
102
RTVSPropertyOp13
 70
     1
102
RTVSPropertyOp14
 70
     1
102
RTVSPropertyOp15
 70
     1
102
RTVSPropertyOp16
 70
     1
102
RTVSPropertyOp17
 70
     1
102
RTVSPropertyOp18
 70
     1
102
RTVSPropertyOp19
 70
     1
102
RTVSPropertyOp20
 70
     1
102
RTVSPropertyOp21
 70
     1
102
RTVSPropertyOp22
 70
     1
102
RTVSPropertyOp23
 70
     1
102
RTVSPropertyOp24
 70
     1
102
RTVSPropertyOp25
 70
     1
102
RTVSPropertyOp26
 70
     1
102
RTVSPropertyOp27
 70
     1
102
RTVSPropertyOp28
 70
     1
102
RTVSPropertyOp29
 70
     1
102
RTVSPropertyOp30
 70
     1
102
RTVSPropertyOp31
 70
     1
102
RTVSPropertyOp32
 70
     1
102
RTVSPropertyOp33
 70
     1
102
RTVSPropertyOp34
 70
     1
102
RTVSPropertyOp35
 70
     1
102
RTVSPropertyOp36
 70
     1
102
RTVSPropertyOp37
 70
     1
102
RTVSPropertyOp38
 70
     1
102
RTVSPropertyOp39
 70
     1
102
RTVSPropertyOp40
 70
     1
102
RTVSPropertyOp41
 70
     1
102
RTVSPropertyOp42
 70
     1
102
RTVSPropertyOp43
 70
     1
102
RTVSPropertyOp44
 70
     1
102
RTVSPropertyOp45
 70
     1
102
RTVSPropertyOp46
 70
     1
102
RTVSPropertyOp47
 70
     1
102
RTVSPropertyOp48
 70
     1
102
RTVSPropertyOp49
 70
     1
102
RTVSPropertyOp50
 70
     1
102
RTVSPropertyOp51
 70
     0
102
RTVSPropertyOp52
 70
     0
102
RTVSPropertyOp53
 70
     1
102
RTVSPropertyOp54
 70
     1
102
RTVSPropertyOp55
 70
     1
102
RTVSPropertyOp56
 70
     1
102
RTVSPropertyOp57
 70
     1
102
RTVSPropertyOp58
 70
     1
102
RTVSPropertyOp59
 70
     1
102
RTVSPropertyOp60
 70
     1
102
RTVSPropertyOp61
 70
     1
102
RTVSPropertyOp62
 70
     1
  0
ENDSEC
  0
EOF
