  0
SECTION
  2
HEADER
  9
$ACADVER
  1
AC1015
  9
$ACADMAINTVER
 70
    20
  9
$DWGCODEPAGE
  3
ANSI_1252
  9
$INSBASE
 10
0.0
 20
0.0
 30
0.0
  9
$EXTMIN
 10
4250.940607823287
 20
2288.9229796125
 30
0.0
  9
$EXTMAX
 10
4253.28360229655
 20
2289.432626507134
 30
0.0
  9
$LIMMIN
 10
0.0
 20
0.0
  9
$LIMMAX
 10
420.0
 20
297.0
  9
$ORTHOMODE
 70
     1
  9
$REGENMODE
 70
     1
  9
$FILLMODE
 70
     1
  9
$QTEXTMODE
 70
     0
  9
$MIRRTEXT
 70
     1
  9
$LTSCALE
 40
1.0
  9
$ATTMODE
 70
     1
  9
$TEXTSIZE
 40
2.5
  9
$TRACEWID
 40
1.0
  9
$TEXTSTYLE
  7
SANINDUSA
  9
$CLAYER
  8
0
  9
$CELTYPE
  6
ByLayer
  9
$CECOLOR
 62
   256
  9
$CELTSCALE
 40
1.0
  9
$DISPSILH
 70
     0
  9
$DIMSCALE
 40
1.0
  9
$DIMASZ
 40
2.0
  9
$DIMEXO
 40
1.0
  9
$DIMDLI
 40
1.0
  9
$DIMRND
 40
0.0
  9
$DIMDLE
 40
0.0
  9
$DIMEXE
 40
1.0
  9
$DIMTP
 40
0.0
  9
$DIMTM
 40
0.0
  9
$DIMTXT
 40
2.0
  9
$DIMCEN
 40
0.0
  9
$DIMTSZ
 40
0.0
  9
$DIMTOL
 70
     0
  9
$DIMLIM
 70
     0
  9
$DIMTIH
 70
     0
  9
$DIMTOH
 70
     0
  9
$DIMSE1
 70
     0
  9
$DIMSE2
 70
     0
  9
$DIMTAD
 70
     1
  9
$DIMZIN
 70
     8
  9
$DIMBLK
  1

  9
$DIMASO
 70
     1
  9
$DIMSHO
 70
     1
  9
$DIMPOST
  1

  9
$DIMAPOST
  1

  9
$DIMALT
 70
     0
  9
$DIMALTD
 70
     3
  9
$DIMALTF
 40
0.03937007874016
  9
$DIMLFAC
 40
1.0
  9
$DIMTOFL
 70
     1
  9
$DIMTVP
 40
0.0
  9
$DIMTIX
 70
     0
  9
$DIMSOXD
 70
     0
  9
$DIMSAH
 70
     0
  9
$DIMBLK1
  1

  9
$DIMBLK2
  1

  9
$DIMSTYLE
  2
SANINDUSA
  9
$DIMCLRD
 70
   256
  9
$DIMCLRE
 70
   256
  9
$DIMCLRT
 70
   256
  9
$DIMTFAC
 40
1.0
  9
$DIMGAP
 40
1.0
  9
$DIMJUST
 70
     0
  9
$DIMSD1
 70
     0
  9
$DIMSD2
 70
     0
  9
$DIMTOLJ
 70
     0
  9
$DIMTZIN
 70
     8
  9
$DIMALTZ
 70
     0
  9
$DIMALTTZ
 70
     0
  9
$DIMUPT
 70
     0
  9
$DIMDEC
 70
     1
  9
$DIMTDEC
 70
     1
  9
$DIMALTU
 70
     2
  9
$DIMALTTD
 70
     3
  9
$DIMTXSTY
  7
SANINDUSA
  9
$DIMAUNIT
 70
     0
  9
$DIMADEC
 70
     1
  9
$DIMALTRND
 40
0.0
  9
$DIMAZIN
 70
     0
  9
$DIMDSEP
 70
    44
  9
$DIMATFIT
 70
     3
  9
$DIMFRAC
 70
     0
  9
$DIMLDRBLK
  1

  9
$DIMLUNIT
 70
     2
  9
$DIMLWD
 70
    -1
  9
$DIMLWE
 70
    -1
  9
$DIMTMOVE
 70
     0
  9
$LUNITS
 70
     2
  9
$LUPREC
 70
     4
  9
$SKETCHINC
 40
1.0
  9
$FILLETRAD
 40
3.0
  9
$AUNITS
 70
     0
  9
$AUPREC
 70
     0
  9
$MENU
  1
.
  9
$ELEVATION
 40
0.0
  9
$PELEVATION
 40
0.0
  9
$THICKNESS
 40
0.0
  9
$LIMCHECK
 70
     0
  9
$CHAMFERA
 40
10.0
  9
$CHAMFERB
 40
10.0
  9
$CHAMFERC
 40
20.0
  9
$CHAMFERD
 40
0.0
  9
$SKPOLY
 70
     0
  9
$TDCREATE
 40
2456849.517746736
  9
$TDUCREATE
 40
2456849.476080070
  9
$TDUPDATE
 40
2457191.625549109
  9
$TDUUPDATE
 40
2457191.583882442
  9
$TDINDWG
 40
0.0021983449
  9
$TDUSRTIMER
 40
0.0021983333
  9
$USRTIMER
 70
     1
  9
$ANGBASE
 50
0.0
  9
$ANGDIR
 70
     0
  9
$PDMODE
 70
     0
  9
$PDSIZE
 40
0.0
  9
$PLINEWID
 40
0.0
  9
$SPLFRAME
 70
     0
  9
$SPLINETYPE
 70
     6
  9
$SPLINESEGS
 70
     8
  9
$HANDSEED
  5
3A2A
  9
$SURFTAB1
 70
     6
  9
$SURFTAB2
 70
     6
  9
$SURFTYPE
 70
     6
  9
$SURFU
 70
     6
  9
$SURFV
 70
     6
  9
$UCSBASE
  2

  9
$UCSNAME
  2

  9
$UCSORG
 10
0.0
 20
0.0
 30
0.0
  9
$UCSXDIR
 10
1.0
 20
0.0
 30
0.0
  9
$UCSYDIR
 10
0.0
 20
1.0
 30
0.0
  9
$UCSORTHOREF
  2

  9
$UCSORTHOVIEW
 70
     0
  9
$UCSORGTOP
 10
0.0
 20
0.0
 30
0.0
  9
$UCSORGBOTTOM
 10
0.0
 20
0.0
 30
0.0
  9
$UCSORGLEFT
 10
0.0
 20
0.0
 30
0.0
  9
$UCSORGRIGHT
 10
0.0
 20
0.0
 30
0.0
  9
$UCSORGFRONT
 10
0.0
 20
0.0
 30
0.0
  9
$UCSORGBACK
 10
0.0
 20
0.0
 30
0.0
  9
$PUCSBASE
  2

  9
$PUCSNAME
  2

  9
$PUCSORG
 10
0.0
 20
0.0
 30
0.0
  9
$PUCSXDIR
 10
1.0
 20
0.0
 30
0.0
  9
$PUCSYDIR
 10
0.0
 20
1.0
 30
0.0
  9
$PUCSORTHOREF
  2

  9
$PUCSORTHOVIEW
 70
     0
  9
$PUCSORGTOP
 10
0.0
 20
0.0
 30
0.0
  9
$PUCSORGBOTTOM
 10
0.0
 20
0.0
 30
0.0
  9
$PUCSORGLEFT
 10
0.0
 20
0.0
 30
0.0
  9
$PUCSORGRIGHT
 10
0.0
 20
0.0
 30
0.0
  9
$PUCSORGFRONT
 10
0.0
 20
0.0
 30
0.0
  9
$PUCSORGBACK
 10
0.0
 20
0.0
 30
0.0
  9
$USERI1
 70
     0
  9
$USERI2
 70
     0
  9
$USERI3
 70
     0
  9
$USERI4
 70
     0
  9
$USERI5
 70
     0
  9
$USERR1
 40
0.0
  9
$USERR2
 40
0.0
  9
$USERR3
 40
0.0
  9
$USERR4
 40
0.0
  9
$USERR5
 40
0.0
  9
$WORLDVIEW
 70
     1
  9
$SHADEDGE
 70
     3
  9
$SHADEDIF
 70
    70
  9
$TILEMODE
 70
     1
  9
$MAXACTVP
 70
    64
  9
$PINSBASE
 10
0.0
 20
0.0
 30
0.0
  9
$PLIMCHECK
 70
     0
  9
$PEXTMIN
 10
1.000000000000000E+20
 20
1.000000000000000E+20
 30
1.000000000000000E+20
  9
$PEXTMAX
 10
-1.000000000000000E+20
 20
-1.000000000000000E+20
 30
-1.000000000000000E+20
  9
$PLIMMIN
 10
0.0
 20
0.0
  9
$PLIMMAX
 10
420.0
 20
297.0
  9
$UNITMODE
 70
     0
  9
$VISRETAIN
 70
     1
  9
$PLINEGEN
 70
     0
  9
$PSLTSCALE
 70
     1
  9
$TREEDEPTH
 70
  3020
  9
$CMLSTYLE
  2
Standard
  9
$CMLJUST
 70
     0
  9
$CMLSCALE
 40
20.0
  9
$PROXYGRAPHICS
 70
     1
  9
$MEASUREMENT
 70
     1
  9
$CELWEIGHT
370
    -1
  9
$ENDCAPS
280
     0
  9
$JOINSTYLE
280
     0
  9
$LWDISPLAY
290
     0
  9
$INSUNITS
 70
     4
  9
$HYPERLINKBASE
  1

  9
$STYLESHEET
  1
sanindusa.ctb
  9
$XEDIT
290
     1
  9
$CEPSNTYPE
380
     0
  9
$PSTYLEMODE
290
     1
  9
$FINGERPRINTGUID
  2
{F3E40331-1735-4207-9B5C-3A2EFC048833}
  9
$VERSIONGUID
  2
{2A755B72-C017-47D0-AAFA-3079187C7AC2}
  9
$EXTNAMES
290
     1
  9
$PSVPSCALE
 40
0.0
  9
$OLESTARTUP
290
     0
  0
ENDSEC
  0
SECTION
  2
CLASSES
  0
CLASS
  1
ACDBDICTIONARYWDFLT
  2
AcDbDictionaryWithDefault
  3
ObjectDBX Classes
 90
        0
280
     0
281
     0
  0
CLASS
  1
ACDBPLACEHOLDER
  2
AcDbPlaceHolder
  3
ObjectDBX Classes
 90
        0
280
     0
281
     0
  0
CLASS
  1
LAYOUT
  2
AcDbLayout
  3
ObjectDBX Classes
 90
        0
280
     0
281
     0
  0
CLASS
  1
DICTIONARYVAR
  2
AcDbDictionaryVar
  3
ObjectDBX Classes
 90
        0
280
     0
281
     0
  0
CLASS
  1
DIMASSOC
  2
AcDbDimAssoc
  3
"AcDbDimAssoc|Product Desc:     AcDim ARX App For Dimension|Company:          Autodesk, Inc.|WEB Address:      www.autodesk.com"
 90
    32768
280
     0
281
     0
  0
CLASS
  1
TABLESTYLE
  2
AcDbTableStyle
  3
ObjectDBX Classes
 90
     4095
280
     0
281
     0
  0
CLASS
  1
MATERIAL
  2
AcDbMaterial
  3
ObjectDBX Classes
 90
     1153
280
     0
281
     0
  0
CLASS
  1
VISUALSTYLE
  2
AcDbVisualStyle
  3
ObjectDBX Classes
 90
     4095
280
     0
281
     0
  0
CLASS
  1
SCALE
  2
AcDbScale
  3
ObjectDBX Classes
 90
     1153
280
     0
281
     0
  0
CLASS
  1
MLEADERSTYLE
  2
AcDbMLeaderStyle
  3
ACDB_MLEADERSTYLE_CLASS
 90
     4095
280
     0
281
     0
  0
CLASS
  1
ACDBSECTIONVIEWSTYLE
  2
AcDbSectionViewStyle
  3
ObjectDBX Classes
 90
     1025
280
     0
281
     0
  0
CLASS
  1
ACDBDETAILVIEWSTYLE
  2
AcDbDetailViewStyle
  3
ObjectDBX Classes
 90
     1025
280
     0
281
     0
  0
CLASS
  1
BREAKDATA
  2
AcDbBreakData
  3
ObjectDBX Classes
 90
    33792
280
     0
281
     0
  0
CLASS
  1
SORTENTSTABLE
  2
AcDbSortentsTable
  3
ObjectDBX Classes
 90
    32768
280
     0
281
     0
  0
CLASS
  1
CELLSTYLEMAP
  2
AcDbCellStyleMap
  3
ObjectDBX Classes
 90
     1152
280
     0
281
     0
  0
ENDSEC
  0
SECTION
  2
TABLES
  0
TABLE
  2
VPORT
  5
8
102
{ACAD_XDICTIONARY
360
397F
102
}
330
0
100
AcDbSymbolTable
 70
     1
  0
VPORT
  5
1068
330
8
100
AcDbSymbolTableRecord
100
AcDbViewportTableRecord
  2
*Active
 70
     0
 10
0.0
 20
0.0
 11
1.0
 21
1.0
 12
4252.12230158329
 22
2289.177803059817
 13
0.0
 23
0.0
 14
10.0
 24
10.0
 15
10.0
 25
10.0
 16
0.0
 26
0.0
 36
1.0
 17
0.0
 27
0.0
 37
0.0
 40
1.438255881900223
 41
1.649419218585005
 42
50.0
 43
0.0
 44
0.0
 50
0.0
 51
0.0
 71
     0
 72
   100
 73
     1
 74
     2
 75
     0
 76
     0
 77
     0
 78
     0
281
     0
 65
     1
110
0.0
120
0.0
130
0.0
111
1.0
121
0.0
131
0.0
112
0.0
122
1.0
132
0.0
 79
     0
146
0.0
1001
ACAD_NAV_VCDISPLAY
1070
     3
  0
ENDTAB
  0
TABLE
  2
LTYPE
  5
5
330
0
100
AcDbSymbolTable
 70
     5
  0
LTYPE
  5
14
330
5
100
AcDbSymbolTableRecord
100
AcDbLinetypeTableRecord
  2
ByBlock
 70
     0
  3

 72
    65
 73
     0
 40
0.0
  0
LTYPE
  5
15
330
5
100
AcDbSymbolTableRecord
100
AcDbLinetypeTableRecord
  2
ByLayer
 70
     0
  3

 72
    65
 73
     0
 40
0.0
  0
LTYPE
  5
16
330
5
100
AcDbSymbolTableRecord
100
AcDbLinetypeTableRecord
  2
Continuous
 70
     0
  3
Solid line
 72
    65
 73
     0
 40
0.0
  0
LTYPE
  5
2D
330
5
100
AcDbSymbolTableRecord
100
AcDbLinetypeTableRecord
  2
DASHDOT
 70
     0
  3
Dash dot __ . __ . __ . __ . __ . __ . __ . __
 72
    65
 73
     4
 40
25.4
 49
12.7
 74
     0
 49
-6.349999999999999
 74
     0
 49
0.0
 74
     0
 49
-6.349999999999999
 74
     0
  0
LTYPE
  5
2E
330
5
100
AcDbSymbolTableRecord
100
AcDbLinetypeTableRecord
  2
HIDDEN
 70
     0
  3
Hidden __ __ __ __ __ __ __ __ __ __ __ __ __ _
 72
    65
 73
     2
 40
9.524999999999998
 49
6.349999999999999
 74
     0
 49
-3.174999999999999
 74
     0
  0
LTYPE
  5
C75
330
5
100
AcDbSymbolTableRecord
100
AcDbLinetypeTableRecord
  2
AM_ISO02W050
 70
     0
  3
__ __ __ __ __ __ __ __ __ __ __ __ __ __ __
 72
    65
 73
     2
 40
7.5
 49
6.0
 74
     0
 49
-1.5
 74
     0
  0
LTYPE
  5
C76
330
5
100
AcDbSymbolTableRecord
100
AcDbLinetypeTableRecord
  2
AM_ISO08W050
 70
     0
  3
____ . ____ . ____ . ____ . ____ . ____ . ____
 72
    65
 73
     4
 40
18.0
 49
12.0
 74
     0
 49
-1.5
 74
     0
 49
3.0
 74
     0
 49
-1.5
 74
     0
  0
ENDTAB
  0
TABLE
  2
LAYER
  5
2
102
{ACAD_XDICTIONARY
360
1051
102
}
330
0
100
AcDbSymbolTable
 70
    17
  0
LAYER
  5
10
102
{ACAD_XDICTIONARY
360
3959
102
}
330
2
100
AcDbSymbolTableRecord
100
AcDbLayerTableRecord
  2
0
 70
     0
 62
     7
  6
Continuous
370
    -3
390
F
  0
LAYER
  5
2F
102
{ACAD_XDICTIONARY
360
395B
102
}
330
2
100
AcDbSymbolTableRecord
100
AcDbLayerTableRecord
  2
1
 70
     0
 62
     1
  6
Continuous
370
    -3
390
F
  0
LAYER
  5
30
102
{ACAD_XDICTIONARY
360
395D
102
}
330
2
100
AcDbSymbolTableRecord
100
AcDbLayerTableRecord
  2
2
 70
     0
 62
     2
  6
Continuous
370
    -3
390
F
  0
LAYER
  5
31
102
{ACAD_XDICTIONARY
360
395F
102
}
330
2
100
AcDbSymbolTableRecord
100
AcDbLayerTableRecord
  2
3
 70
     0
 62
     3
  6
Continuous
370
    -3
390
F
  0
LAYER
  5
32
102
{ACAD_XDICTIONARY
360
3961
102
}
330
2
100
AcDbSymbolTableRecord
100
AcDbLayerTableRecord
  2
4
 70
     0
 62
     4
  6
Continuous
370
    -3
390
F
  0
LAYER
  5
33
102
{ACAD_XDICTIONARY
360
3963
102
}
330
2
100
AcDbSymbolTableRecord
100
AcDbLayerTableRecord
  2
5
 70
     0
 62
     5
  6
Continuous
370
    -3
390
F
  0
LAYER
  5
34
102
{ACAD_XDICTIONARY
360
3965
102
}
330
2
100
AcDbSymbolTableRecord
100
AcDbLayerTableRecord
  2
6
 70
     0
 62
     6
  6
Continuous
370
    -3
390
F
  0
LAYER
  5
35
102
{ACAD_XDICTIONARY
360
3967
102
}
330
2
100
AcDbSymbolTableRecord
100
AcDbLayerTableRecord
  2
7
 70
     0
 62
     7
  6
Continuous
370
    -3
390
F
  0
LAYER
  5
36
102
{ACAD_XDICTIONARY
360
3969
102
}
330
2
100
AcDbSymbolTableRecord
100
AcDbLayerTableRecord
  2
cen
 70
     0
 62
     7
  6
DASHDOT
370
    -3
390
F
  0
LAYER
  5
37
102
{ACAD_XDICTIONARY
360
396B
102
}
330
2
100
AcDbSymbolTableRecord
100
AcDbLayerTableRecord
  2
hid
 70
     0
 62
     7
  6
HIDDEN
370
    -3
390
F
  0
LAYER
  5
5D6
102
{ACAD_XDICTIONARY
360
396D
102
}
330
2
100
AcDbSymbolTableRecord
100
AcDbLayerTableRecord
  2
hatch
 70
     0
 62
     9
  6
Continuous
370
    -3
390
F
  0
LAYER
  5
8AF
102
{ACAD_XDICTIONARY
360
396F
102
}
330
2
100
AcDbSymbolTableRecord
100
AcDbLayerTableRecord
  2
9
 70
     0
 62
     9
  6
Continuous
370
    -3
390
F
  0
LAYER
  5
8F8
102
{ACAD_XDICTIONARY
360
3971
102
}
330
2
100
AcDbSymbolTableRecord
100
AcDbLayerTableRecord
  2
leg fin
 70
     0
 62
     9
  6
Continuous
370
    -3
390
F
  0
LAYER
  5
91D
102
{ACAD_XDICTIONARY
360
3973
102
}
330
2
100
AcDbSymbolTableRecord
100
AcDbLayerTableRecord
  2
cotas
 70
     0
 62
     1
  6
Continuous
370
    -3
390
F
  0
LAYER
  5
92F
330
2
100
AcDbSymbolTableRecord
100
AcDbLayerTableRecord
  2
Defpoints
 70
     0
 62
     7
  6
Continuous
290
     0
370
    -3
390
F
  0
LAYER
  5
C7B
102
{ACAD_XDICTIONARY
360
3975
102
}
330
2
100
AcDbSymbolTableRecord
100
AcDbLayerTableRecord
  2
SANINDUSA
 70
     0
 62
     3
  6
Continuous
370
    -3
390
F
  0
LAYER
  5
1060
102
{ACAD_XDICTIONARY
360
3977
102
}
330
2
100
AcDbSymbolTableRecord
100
AcDbLayerTableRecord
  2
hid1
 70
     0
 62
     9
  6
HIDDEN
370
    -3
390
F
1001
AcAecLayerStandard
1000

1000

  0
ENDTAB
  0
TABLE
  2
STYLE
  5
3
330
0
100
AcDbSymbolTable
 70
     4
  0
STYLE
  5
11
330
3
100
AcDbSymbolTableRecord
100
AcDbTextStyleTableRecord
  2
Standard
 70
     0
 40
0.0
 41
1.0
 50
0.0
 71
     0
 42
2.5
  3
Avgardn.ttf
  4

1001
ACAD
1000
AvantGarde Bk BT
1071
       34
  0
STYLE
  5
2C
330
3
100
AcDbSymbolTableRecord
100
AcDbTextStyleTableRecord
  2

 70
     1
 40
0.0
 41
1.0
 50
0.0
 71
     0
 42
2.5
  3
ltypeshp.shx
  4

  0
STYLE
  5
91F
330
3
100
AcDbSymbolTableRecord
100
AcDbTextStyleTableRecord
  2
SANINDUSA
 70
     0
 40
0.0
 41
1.0
 50
0.0
 71
     0
 42
2.5
  3
verdana.ttf
  4

1001
ACAD
1000
Verdana
1071
       34
  0
STYLE
  5
C7C
330
3
100
AcDbSymbolTableRecord
100
AcDbTextStyleTableRecord
  2
futura
 70
     0
 40
0.0
 41
1.0
 50
0.0
 71
     0
 42
2.5
  3
ZURCHN.TTF
  4

1001
ACAD
1000
Zurich BT
1071
       34
  0
ENDTAB
  0
TABLE
  2
VIEW
  5
6
330
0
100
AcDbSymbolTable
 70
     0
  0
ENDTAB
  0
TABLE
  2
UCS
  5
7
330
0
100
AcDbSymbolTable
 70
     0
  0
ENDTAB
  0
TABLE
  2
APPID
  5
9
330
0
100
AcDbSymbolTable
 70
    18
  0
APPID
  5
12
330
9
100
AcDbSymbolTableRecord
100
AcDbRegAppTableRecord
  2
ACAD
 70
     0
  0
APPID
  5
3A
330
9
100
AcDbSymbolTableRecord
100
AcDbRegAppTableRecord
  2
DCO15
 70
     0
  0
APPID
  5
EEE
330
9
100
AcDbSymbolTableRecord
100
AcDbRegAppTableRecord
  2
ACAD_DSTYLE_DIMTEXT_FILL
 70
     0
  0
APPID
  5
EEF
330
9
100
AcDbSymbolTableRecord
100
AcDbRegAppTableRecord
  2
ACAD_DSTYLE_DIMEXT_LENGTH
 70
     0
  0
APPID
  5
EF0
330
9
100
AcDbSymbolTableRecord
100
AcDbRegAppTableRecord
  2
ACAD_DSTYLE_DIMEXT_ENABLED
 70
     0
  0
APPID
  5
EF1
330
9
100
AcDbSymbolTableRecord
100
AcDbRegAppTableRecord
  2
ACAD_DSTYLE_DIM_LINETYPE
 70
     0
  0
APPID
  5
EF2
330
9
100
AcDbSymbolTableRecord
100
AcDbRegAppTableRecord
  2
ACAD_DSTYLE_DIM_EXT1_LINETYPE
 70
     0
  0
APPID
  5
EF3
330
9
100
AcDbSymbolTableRecord
100
AcDbRegAppTableRecord
  2
ACAD_DSTYLE_DIM_EXT2_LINETYPE
 70
     0
  0
APPID
  5
FAF
330
9
100
AcDbSymbolTableRecord
100
AcDbRegAppTableRecord
  2
ACAD_DSTYLE_DIMJOGGED_JOGANGLE_SYMBOL
 70
     0
  0
APPID
  5
1013
330
9
100
AcDbSymbolTableRecord
100
AcDbRegAppTableRecord
  2
ACAD_DSTYLE_DIMARC_LENGTH_SYMBOL
 70
     0
  0
APPID
  5
1061
330
9
100
AcDbSymbolTableRecord
100
AcDbRegAppTableRecord
  2
AcAecLayerStandard
 70
     0
  0
APPID
  5
12E5
330
9
100
AcDbSymbolTableRecord
100
AcDbRegAppTableRecord
  2
ACAD_NAV_VCDISPLAY
 70
     0
  0
APPID
  5
12E6
330
9
100
AcDbSymbolTableRecord
100
AcDbRegAppTableRecord
  2
GradientColor1ACI
 70
     0
  0
APPID
  5
12E7
330
9
100
AcDbSymbolTableRecord
100
AcDbRegAppTableRecord
  2
GradientColor2ACI
 70
     0
  0
APPID
  5
12E8
330
9
100
AcDbSymbolTableRecord
100
AcDbRegAppTableRecord
  2
ACAD_DSTYLE_DIMJAG
 70
     0
  0
APPID
  5
12E9
330
9
100
AcDbSymbolTableRecord
100
AcDbRegAppTableRecord
  2
ACAD_DSTYLE_DIMTALN
 70
     0
  0
APPID
  5
12EA
330
9
100
AcDbSymbolTableRecord
100
AcDbRegAppTableRecord
  2
ACAD_DSTYLE_DIMRADIAL_EXTENSION
 70
     0
  0
APPID
  5
39BB
330
9
100
AcDbSymbolTableRecord
100
AcDbRegAppTableRecord
  2
ACAD_MLEADERVER
 70
     0
  0
ENDTAB
  0
TABLE
  2
DIMSTYLE
  5
A
330
0
100
AcDbSymbolTable
 70
     3
100
AcDbDimStyleTable
 71
     1
340
921
  0
DIMSTYLE
105
45
330
A
100
AcDbSymbolTableRecord
100
AcDbDimStyleTableRecord
  2
STANDARD
 70
     0
289
     0
340
11
  0
DIMSTYLE
105
921
330
A
100
AcDbSymbolTableRecord
100
AcDbDimStyleTableRecord
  2
SANINDUSA
 70
     0
 41
2.0
 42
1.0
 43
1.0
 44
1.0
 73
     0
 74
     0
 77
     1
 78
     8
140
2.0
141
0.0
143
0.03937007874016
147
1.0
171
     3
172
     1
176
   256
177
   256
178
   256
179
     1
271
     1
272
     1
274
     3
278
    44
283
     0
284
     8
340
91F
371
    -1
372
    -1
1001
ACAD_DSTYLE_DIMJOGGED_JOGANGLE_SYMBOL
1070
   384
1040
1.570796326794896
  0
DIMSTYLE
105
C7D
330
A
100
AcDbSymbolTableRecord
100
AcDbDimStyleTableRecord
  2
AM_ISO
 70
     0
  4
"
 41
2.5
 42
1.0
 43
10.0
 44
1.0
 47
0.1
 48
0.1
 73
     0
 74
     0
 77
     1
 78
     8
 79
     2
140
3.5
141
0.0
143
0.0393701
146
0.71
147
1.5
172
     1
176
   256
177
   256
178
     2
271
     2
272
     3
274
     4
283
     0
284
     8
340
11
371
    -1
372
    -1
  0
ENDTAB
  0
TABLE
  2
BLOCK_RECORD
  5
1
330
0
100
AcDbSymbolTable
 70
   102
  0
BLOCK_RECORD
  5
1F
330
1
100
AcDbSymbolTableRecord
100
AcDbBlockTableRecord
  2
*Model_Space
340
22
  0
BLOCK_RECORD
  5
1B
330
1
100
AcDbSymbolTableRecord
100
AcDbBlockTableRecord
  2
*Paper_Space
340
1E
  0
BLOCK_RECORD
  5
23
330
1
100
AcDbSymbolTableRecord
100
AcDbBlockTableRecord
  2
*Paper_Space0
340
26
  0
BLOCK_RECORD
  5
919
330
1
100
AcDbSymbolTableRecord
100
AcDbBlockTableRecord
  2
_DotSmall
340
0
  0
BLOCK_RECORD
  5
922
330
1
100
AcDbSymbolTableRecord
100
AcDbBlockTableRecord
  2
base para cotas
340
0
310
2800000020000000200000000100080000000000000400000000000000000000000000000000000000000000000080000080000000808000800000008000800080800000C0C0C000C0DCC000F0CAA6000020400000206000002080000020A0000020C0000020E00000400000004020000040400000406000004080000040A0
310
000040C0000040E00000600000006020000060400000606000006080000060A0000060C0000060E00000800000008020000080400000806000008080000080A0000080C0000080E00000A0000000A0200000A0400000A0600000A0800000A0A00000A0C00000A0E00000C0000000C0200000C0400000C0600000C0800000C0
310
A00000C0C00000C0E00000E0000000E0200000E0400000E0600000E0800000E0A00000E0C00000E0E00040000000400020004000400040006000400080004000A0004000C0004000E00040200000402020004020400040206000402080004020A0004020C0004020E000404000004040200040404000404060004040800040
310
40A0004040C0004040E00040600000406020004060400040606000406080004060A0004060C0004060E00040800000408020004080400040806000408080004080A0004080C0004080E00040A0000040A0200040A0400040A0600040A0800040A0A00040A0C00040A0E00040C0000040C0200040C0400040C0600040C08000
310
40C0A00040C0C00040C0E00040E0000040E0200040E0400040E0600040E0800040E0A00040E0C00040E0E00080000000800020008000400080006000800080008000A0008000C0008000E00080200000802020008020400080206000802080008020A0008020C0008020E00080400000804020008040400080406000804080
310
008040A0008040C0008040E00080600000806020008060400080606000806080008060A0008060C0008060E00080800000808020008080400080806000808080008080A0008080C0008080E00080A0000080A0200080A0400080A0600080A0800080A0A00080A0C00080A0E00080C0000080C0200080C0400080C0600080C0
310
800080C0A00080C0C00080C0E00080E0000080E0200080E0400080E0600080E0800080E0A00080E0C00080E0E000C0000000C0002000C0004000C0006000C0008000C000A000C000C000C000E000C0200000C0202000C0204000C0206000C0208000C020A000C020C000C020E000C0400000C0402000C0404000C0406000C0
310
408000C040A000C040C000C040E000C0600000C0602000C0604000C0606000C0608000C060A000C060C000C060E000C0800000C0802000C0804000C0806000C0808000C080A000C080C000C080E000C0A00000C0A02000C0A04000C0A06000C0A08000C0A0A000C0A0C000C0A0E000C0C00000C0C02000C0C04000C0C06000
310
C0C08000C0C0A000F0FBFF00A4A0A000808080000000FF0000FF000000FFFF00FF000000FF00FF00FFFF0000FFFFFF00A4A4A4A4A4A4A4A4A4A4A4A4A4A4A4A4A4A4A4A4A4A4A4A4A4A4A4A4A4A4A4A4A4A4A4A4A4A4A4A4A4A4A4A4A4A4A4A4A4A4A4A4A4A4A4A4A4A4A4A4A4A4A4A4A4A4A4A4A4A4A4A4A4A4A4A4A4A4A4
310
A4A4A4A4A4A4A4A4A4A4A4A4A4A4A4A4A4A4A4A4A4A4A4A4A4A4A4A4A4A4A4A4A4A4A4A4A4A4A4A4A4A4A4A4A4A4A4A4A4A4A4A4A4A4A4A4A4A4A4A4A4A4A4A4A4A4A4A4A4A4A4A4A4A4A4A4A4A4A4A4A4A4A4A4A4A4A4A4A4A4A4A4A4A4A4A4A4A4A4A4A4A4A4A4A4A4A4A4A4A4A4A4A4A4A4A4A4A4A4A4A4A4A4A4A4A4A4
310
A4A4A4A4A4A4A4A4A4A4A4A4A4A4A4A4A4A4A4A4A4A4A4A4A4A4A4A4A4A4A4A4A4A4A4A4A4A4A4A4A4A4A4A4A4A4A4A4A4A4A4A4A4A4A4A4A4A4A4A4A4A4A4A4A4A4A4A4A4A4A4A4A4A4A4A4A4A4A4A4A4A4A4A4A4A4A4A4A4A4A4A4A4A4A4A4A4A4A4A4A4A4A4A4A4A4A4A4A4A4A4A4A4A4A4A4A4A4A4A4A4A4A4A4A4A4A4
310
A4A4A4A4A4A4A4A4A4A4A4A4A4A4A4A4A4A4A4A4A4A4A4A4A4A4A4A4A4A4A4A4A4A4A4A4A4A4A4A4A4A4A4A4A4A4A4A4A4A4A4A4A4A4A4A4A4A4A4A4A4A4A4A4A4A4A4A4A4A4A4A4A4A4A4A4A4A4A4A4A4A4A4A4A4A4A4A4A4A4A4A4A4A4A4A4A4A4A4A4A4A4A4A4A4A4A4A4A4A4A4A4A4A4A4A4F9F9F9F9F9F9F9F9F9F9F9
310
F9F9F9F9F9F9F9F9F9F9F9F9F9F9F9F9F9F9F9A4A4F9F9F9F9F9F9F9F9F9F9F9F9F9F9F9F9F9F9F9F9F9F9F9F9F9F9F9F9F9F9A4A4F9F9F9F9F9F9F9F9F9F9F9F9F9F9F9F9F9F9F9F9F9F9F9F9F9F9F9F9F9F9A4A4F9A4A4A4A4A4A4A4A4A4A4A4A4A4A4A4A4A4A4A4A4A4A4A4A4A4A4A4A4F9A4A4A4A4A4A4A4A4A4A4A4A4
310
A4A4A4A4A4A4A4A4A4A4A4A4A4A4A4A4A4A4A4A4A4A4A4A4A4A4A4A4A4A4A4A4A4A4A4A4A4A4A4A4A4A4A4A4A4A4A4A4A4A4A4A4A4A4A4A4A4A4A4A4A4A4A4A4A4A4A4A4A4A4A4A4A4A4A4A4A4A4A4A4A4A4A4A4A4A4A4A4A4A4A4A4A4A4A4A4A4A4A4A4A4A4A4A4A4A4A4A4A4A4A4A4A4A4A4A4A4A4A4A4A4A4A4A4A4A4A4
310
A4A4A4A4A4A4A4A4A4A4A4A4A4A4A4A4A4A4A4A4A4A4A4A4A4A4A4A4A4A4A4A4A4A4A4A4A4A4A4A4A4A4A4A4A4A4A4A4A4A4A4A4A4A4A4A4A4A4A4A4A4A4A4A4A4A4A4A4A4A4A4A4A4A4A4A4A4A4A4A4A4A4A4A4A4A4A4A4A4A4A4A4A4A4A4A4A4A4A4A4A4A4A4A4A4A4A4A4A4A4A4A4A4A4A4A4A4A4A4A4A4A4A4A4A4A4A4
310
A4A4A4A4A4A4A4A4A4A4A4A4A4A4A4A4A4A4A4A4A4A4A4A4A4A4A4A4A4A4A4A4A4A4A4A4A4A4A4A4A4A4A4A4A4A4A4A4A4A4A4A4A4A4A4A4A4A4A4A4A4A4A4A4A4A4A4A4A4A4A4A4A4A4A4A4A4A4A4A4A4A4A4A4A4A4A4A4A4A4A4A4A4A4A4A4A4A4A4A4A4A4A4A4A4A4A4A4A4A4A4A4A4A4A4A4A4A4A4A4A4A4A4A4A4A4A4
310
A4A4A4A4A4A4A4A4A4A4A4A4A4A4A4A4A4A4A4A4A4A4A4A4A4A4A4A4A4A4A4A4A4A4A4A4A4A4A4A4A4A4A4A4A4A4A4A4A4A4A4A4A4A4A4A4
1001
ACAD
1000
DesignCenter Data
1002
{
1070
     1
1070
     4
1002
}
  0
BLOCK_RECORD
  5
AA8
330
1
100
AcDbSymbolTableRecord
100
AcDbBlockTableRecord
  2
_CLOSED
340
0
  0
BLOCK_RECORD
  5
B79
330
1
100
AcDbSymbolTableRecord
100
AcDbBlockTableRecord
  2
nota revisoes
340
0
1001
ACAD
1000
DesignCenter Data
1002
{
1070
     1
1070
     4
1002
}
  0
BLOCK_RECORD
  5
B8E
330
1
100
AcDbSymbolTableRecord
100
AcDbBlockTableRecord
  2
a3l
340
0
1001
ACAD
1000
DesignCenter Data
1002
{
1070
     1
1070
     4
1002
}
  0
BLOCK_RECORD
  5
B9E
330
1
100
AcDbSymbolTableRecord
100
AcDbBlockTableRecord
  2
legenda desenvolvimento
340
0
1001
ACAD
1000
DesignCenter Data
1002
{
1070
     1
1070
     4
1002
}
  0
ENDTAB
  0
ENDSEC
  0
SECTION
  2
BLOCKS
  0
BLOCK
  5
20
330
1F
100
AcDbEntity
  8
0
100
AcDbBlockBegin
  2
*Model_Space
 70
     0
 10
0.0
 20
0.0
 30
0.0
  3
*Model_Space
  1

  0
ENDBLK
  5
21
330
1F
100
AcDbEntity
  8
0
100
AcDbBlockEnd
  0
BLOCK
  5
1C
330
1B
100
AcDbEntity
 67
     1
  8
0
100
AcDbBlockBegin
  2
*Paper_Space
 70
     0
 10
0.0
 20
0.0
 30
0.0
  3
*Paper_Space
  1

  0
ENDBLK
  5
1D
330
1B
100
AcDbEntity
 67
     1
  8
0
100
AcDbBlockEnd
  0
BLOCK
  5
24
330
23
100
AcDbEntity
 67
     1
  8
0
100
AcDbBlockBegin
  2
*Paper_Space0
 70
     0
 10
0.0
 20
0.0
 30
0.0
  3
*Paper_Space0
  1

  0
ENDBLK
  5
25
330
23
100
AcDbEntity
 67
     1
  8
0
100
AcDbBlockEnd
  0
BLOCK
  5
91B
330
919
100
AcDbEntity
  8
0
100
AcDbBlockBegin
  2
_DotSmall
 70
     0
 10
0.0
 20
0.0
 30
0.0
  3
_DotSmall
  1

  0
LWPOLYLINE
  5
91A
330
919
100
AcDbEntity
  8
0
  6
ByBlock
 62
     0
100
AcDbPolyline
 90
        2
 70
     1
 43
0.5
 10
-0.0625
 20
0.0
 42
1.0
 10
0.0625
 20
0.0
 42
1.0
  0
ENDBLK
  5
91C
330
919
100
AcDbEntity
  8
0
100
AcDbBlockEnd
  0
BLOCK
  5
92A
330
922
100
AcDbEntity
  8
0
100
AcDbBlockBegin
  2
base para cotas
 70
     0
 10
0.0
 20
0.0
 30
0.0
  3
base para cotas
  1

  0
LINE
  5
B36
330
922
100
AcDbEntity
  8
cotas
100
AcDbLine
 10
0.0
 20
-30.0
 30
0.0
 11
327.1260136525398
 21
-30.0
 31
0.0
  0
LINE
  5
B37
330
922
100
AcDbEntity
  8
cotas
100
AcDbLine
 10
0.0
 20
-25.0
 30
0.0
 11
327.1260136525398
 21
-25.0
 31
0.0
  0
LINE
  5
B38
330
922
100
AcDbEntity
  8
cotas
100
AcDbLine
 10
0.0
 20
-20.0
 30
0.0
 11
327.1260136525398
 21
-20.0
 31
0.0
  0
LINE
  5
B39
330
922
100
AcDbEntity
  8
cotas
100
AcDbLine
 10
0.0
 20
-15.0
 30
0.0
 11
327.1260136525398
 21
-15.0
 31
0.0
  0
LINE
  5
B3A
330
922
100
AcDbEntity
  8
cotas
100
AcDbLine
 10
0.0
 20
-10.0
 30
0.0
 11
327.1260136525398
 21
-10.0
 31
0.0
  0
LINE
  5
B3B
330
922
100
AcDbEntity
  8
cotas
100
AcDbLine
 10
0.0
 20
0.0
 30
0.0
 11
0.0
 21
-30.0
 31
0.0
  0
LINE
  5
B3C
330
922
100
AcDbEntity
  8
cotas
100
AcDbLine
 10
327.1260136525398
 20
-30.0
 30
0.0
 11
327.1260136525398
 21
0.0
 31
0.0
  0
ENDBLK
  5
92B
330
922
100
AcDbEntity
  8
0
100
AcDbBlockEnd
  0
BLOCK
  5
AAD
330
AA8
100
AcDbEntity
  8
0
100
AcDbBlockBegin
  2
_CLOSED
 70
     0
 10
0.0
 20
0.0
 30
0.0
  3
_CLOSED
  1

  0
LINE
  5
AA9
330
AA8
100
AcDbEntity
  8
0
100
AcDbLine
 10
-1.0
 20
0.166667
 30
0.0
 11
0.0
 21
0.0
 31
0.0
  0
LINE
  5
AAA
330
AA8
100
AcDbEntity
  8
0
100
AcDbLine
 10
0.0
 20
0.0
 30
0.0
 11
-1.0
 21
-0.166667
 31
0.0
  0
LINE
  5
AAB
330
AA8
100
AcDbEntity
  8
0
100
AcDbLine
 10
-1.0
 20
0.166667
 30
0.0
 11
-1.0
 21
-0.166667
 31
0.0
  0
LINE
  5
AAC
330
AA8
100
AcDbEntity
  8
0
100
AcDbLine
 10
0.0
 20
0.0
 30
0.0
 11
-1.0
 21
0.0
 31
0.0
  0
ENDBLK
  5
AAE
330
AA8
100
AcDbEntity
  8
0
100
AcDbBlockEnd
  0
BLOCK
  5
B7C
330
B79
100
AcDbEntity
  8
0
100
AcDbBlockBegin
  2
nota revisoes
 70
     0
 10
0.0
 20
0.0
 30
0.0
  3
nota revisoes
  1

  0
CIRCLE
  5
B7A
330
B79
100
AcDbEntity
  8
4
100
AcDbCircle
 10
0.0
 20
0.0
 30
0.0
 40
13.69426055101189
  0
TEXT
  5
B7B
330
B79
100
AcDbEntity
  8
4
100
AcDbText
 10
-5.496248358154345
 20
-5.354545554066362
 30
0.0
 40
12.0
  1
1
  7
SANINDUSA
 72
     1
 11
-0.249774214433728
 21
-5.354545554066362
 31
0.0
100
AcDbText
  0
ENDBLK
  5
B7D
330
B79
100
AcDbEntity
  8
0
100
AcDbBlockEnd
  0
BLOCK
  5
B9C
330
B8E
100
AcDbEntity
  8
0
100
AcDbBlockBegin
  2
a3l
 70
     0
 10
0.0
 20
0.0
 30
0.0
  3
a3l
  1

  0
LINE
  5
B8F
330
B8E
100
AcDbEntity
  8
1
100
AcDbLine
 10
-364.2925296599447
 20
-362.1188951399395
 30
0.0
 11
-364.2925296599447
 21
-65.11889513993946
 31
0.0
  0
LINE
  5
B90
330
B8E
100
AcDbEntity
  8
4
100
AcDbLine
 10
-369.2925296599447
 20
-357.1188951399395
 30
0.0
 11
-369.2925296599447
 21
-70.11889513993946
 31
0.0
  0
LINE
  5
B91
330
B8E
100
AcDbEntity
  8
1
100
AcDbLine
 10
-784.2925296599446
 20
-65.11889513993946
 30
0.0
 11
-784.2925296599446
 21
-362.1188951399395
 31
0.0
  0
LINE
  5
B92
330
B8E
100
AcDbEntity
  8
4
100
AcDbLine
 10
-759.2925296599446
 20
-357.1188951399395
 30
0.0
 11
-759.2925296599446
 21
-70.11889513993946
 31
0.0
  0
LINE
  5
B93
330
B8E
100
AcDbEntity
  8
1
100
AcDbLine
 10
-784.2925296599446
 20
-362.1188951399395
 30
0.0
 11
-364.2925296599447
 21
-362.1188951399395
 31
0.0
  0
LINE
  5
B94
330
B8E
100
AcDbEntity
  8
4
100
AcDbLine
 10
-759.2925296599446
 20
-357.1188951399395
 30
0.0
 11
-369.2925296599447
 21
-357.1188951399395
 31
0.0
  0
LINE
  5
B95
330
B8E
100
AcDbEntity
  8
1
100
AcDbLine
 10
-654.2925296599446
 20
-357.1188951399395
 30
0.0
 11
-654.2925296599446
 21
-362.1188951399395
 31
0.0
  0
LINE
  5
B96
330
B8E
100
AcDbEntity
  8
1
100
AcDbLine
 10
-364.2925296599447
 20
-65.11889513993946
 30
0.0
 11
-784.2925296599446
 21
-65.11889513993946
 31
0.0
  0
LINE
  5
B97
330
B8E
100
AcDbEntity
  8
4
100
AcDbLine
 10
-369.2925296599447
 20
-70.11889513993946
 30
0.0
 11
-759.2925296599446
 21
-70.11889513993946
 31
0.0
  0
LINE
  5
B98
330
B8E
100
AcDbEntity
  8
1
100
AcDbLine
 10
-654.2925296599446
 20
-65.11889513993946
 30
0.0
 11
-654.2925296599446
 21
-70.11889513993946
 31
0.0
  0
LINE
  5
B99
330
B8E
100
AcDbEntity
  8
1
100
AcDbLine
 10
-549.2925296599446
 20
-70.11889513993946
 30
0.0
 11
-549.2925296599446
 21
-65.11889513993946
 31
0.0
  0
LINE
  5
B9A
330
B8E
100
AcDbEntity
  8
1
100
AcDbLine
 10
-369.2925296599447
 20
-65.11889513993946
 30
0.0
 11
-364.2925296599447
 21
-65.11889513993946
 31
0.0
  0
LINE
  5
B9B
330
B8E
100
AcDbEntity
  8
1
100
AcDbLine
 10
-549.2925296599446
 20
-357.1188951399395
 30
0.0
 11
-549.2925296599446
 21
-362.1188951399395
 31
0.0
  0
ENDBLK
  5
B9D
330
B8E
100
AcDbEntity
  8
0
100
AcDbBlockEnd
  0
BLOCK
  5
C13
330
B9E
100
AcDbEntity
  8
0
100
AcDbBlockBegin
  2
legenda desenvolvimento
 70
     2
 10
0.0
 20
0.0
 30
0.0
  3
legenda desenvolvimento
  1

  0
ATTDEF
  5
B9F
330
B9E
100
AcDbEntity
  8
1
100
AcDbText
 10
-108.606245802552
 20
55.5
 30
0.0
 40
4.0
  1
XXXXXXXXXXXXXX
 41
0.8
  7
SANINDUSA
 72
     4
 11
-87.5
 21
57.5
 31
0.0
100
AcDbAttributeDefinition
  3
Nome do Produto:
  2
PRODUTO
 70
     0
  0
ATTDEF
  5
BA0
330
B9E
100
AcDbEntity
  8
1
100
AcDbText
 10
-97.9997966101695
 20
41.25
 30
0.0
 40
3.0
  1
XXXXXXXXX
 41
0.8
  7
futura
 72
     4
 11
-87.5
 21
42.75
 31
0.0
100
AcDbAttributeDefinition
  3
Nome da Peça:
  2
PECA
 70
     0
  0
ATTDEF
  5
BA1
330
B9E
100
AcDbEntity
  8
1
100
AcDbText
 10
-133.4422431161853
 20
21.11745296763252
 30
0.0
 40
2.5
  1
X
 41
0.8
  7
SANINDUSA
 72
     4
 11
-132.5
 21
22.36745296763252
 31
0.0
100
AcDbAttributeDefinition
  3
Cod. TESTE:
  2
TESTE
 70
     0
  0
ATTDEF
  5
BA2
330
B9E
100
AcDbEntity
  8
1
100
AcDbText
 10
-124.3844862323707
 20
21.11745296763252
 30
0.0
 40
2.5
  1
XX
 41
0.8
  7
SANINDUSA
 72
     4
 11
-122.5
 21
22.36745296763252
 31
0.0
100
AcDbAttributeDefinition
  3
Cod. Ano:
  2
ANO
 70
     0
  0
ATTDEF
  5
BA3
330
B9E
100
AcDbEntity
  8
1
100
AcDbText
 10
-112.526889953052
 20
21.11745296763252
 30
0.0
 40
2.5
  1
XXX
 41
0.8
  7
SANINDUSA
 72
     4
 11
-109.700160604496
 21
22.36745296763252
 31
0.0
100
AcDbAttributeDefinition
  3
Cod. Sequência:
  2
SEQUENCIA
 70
     0
  0
ATTDEF
  5
BA4
330
B9E
100
AcDbEntity
  8
1
100
AcDbText
 10
-99.35382430979316
 20
21.11745296763252
 30
0.0
 40
2.5
  1
XX
 41
0.8
  7
SANINDUSA
 72
     4
 11
-97.46933807742244
 21
22.36745296763252
 31
0.0
100
AcDbAttributeDefinition
  3
Cod. Tipo:
  2
TIPO
 70
     0
  0
ATTDEF
  5
BA5
330
B9E
100
AcDbEntity
  8
1
100
AcDbText
 10
-87.42035911468438
 20
21.11745296763252
 30
0.0
 40
2.5
  1
XXX
 41
0.8
  7
SANINDUSA
 72
     4
 11
-84.59362976612828
 21
22.36745296763252
 31
0.0
100
AcDbAttributeDefinition
  3
Cod. Produto:
  2
PRODUTO
 70
     0
  0
ATTDEF
  5
BA6
330
B9E
100
AcDbEntity
  8
1
100
AcDbText
 10
-74.62051971917853
 20
21.11745296763252
 30
0.0
 40
2.5
  1
XXX
 41
0.8
  7
SANINDUSA
 72
     4
 11
-71.79379037062244
 21
22.36745296763252
 31
0.0
100
AcDbAttributeDefinition
  3
Cod. Peça:
  2
PECA
 70
     0
  0
ATTDEF
  5
BA7
330
B9E
100
AcDbEntity
  8
1
100
AcDbText
 10
-61.10603446650329
 20
21.11745296763252
 30
0.0
 40
2.5
  1
XX
 41
0.8
  7
SANINDUSA
 72
     4
 11
-59.22154823413257
 21
22.36745296763252
 31
0.0
100
AcDbAttributeDefinition
  3
Cod. Revisão:
  2
REV
 70
     0
  0
ATTDEF
  5
BA8
330
B9E
100
AcDbEntity
  8
1
100
AcDbText
 10
-48.43615325006194
 20
21.11745296763252
 30
0.0
 40
2.5
  1
XX
 41
0.8
  7
SANINDUSA
 72
     4
 11
-46.55166701769121
 21
22.36745296763252
 31
0.0
100
AcDbAttributeDefinition
  3
Cod. Alteração:
  2
ALT
 70
     0
  0
ATTDEF
  5
BA9
330
B9E
100
AcDbEntity
  8
1
100
AcDbText
 10
-35.19086635325722
 20
23.98875083948959
 30
0.0
 40
3.0
  1
1/XXX
 41
0.8
  7
SANINDUSA
 72
     4
 11
-30.0
 21
25.25
 31
0.0
100
AcDbAttributeDefinition
  3
Escala geral:
  2
ESCALA
 70
     0
  0
ATTDEF
  5
BAA
330
B9E
100
AcDbEntity
  8
1
100
AcDbText
 10
-15.65345869711215
 20
23.75
 30
0.0
 40
3.0
  1
XXXXX
 41
0.8
  7
SANINDUSA
 72
     4
 11
-10.0
 21
25.25
 31
0.0
100
AcDbAttributeDefinition
  3
Folha:
  2
FOLHA
 70
     0
  0
ATTDEF
  5
BAB
330
B9E
100
AcDbEntity
  8
1
100
AcDbText
 10
-178.5146998822042
 20
56.9531347542807
 30
0.0
 40
2.0
  1
xx
 41
0.8
  7
SANINDUSA
 72
     4
 11
-177.2123493113513
 21
57.70330265219877
 31
0.0
100
AcDbAttributeDefinition
  3
revisão
  2
REV.
 70
     0
  0
ATTDEF
  5
BAC
330
B9E
100
AcDbEntity
  8
1
100
AcDbText
 10
-172.7849640077129
 20
56.9531347542807
 30
0.0
 40
2.0
  1
xx
 41
0.8
  7
SANINDUSA
 72
     4
 11
-171.48261343686
 21
57.70330265219877
 31
0.0
100
AcDbAttributeDefinition
  3
alteração
  2
ALT.
 70
     0
  0
ATTDEF
  5
BAD
330
B9E
100
AcDbEntity
  8
1
100
AcDbText
 10
-168.007199951307
 20
56.70330265219877
 30
0.0
 40
2.0
  1
xx/xx/xxxx
 41
0.8
  7
SANINDUSA
 11
-168.007199951307
 21
57.70330265219877
 31
0.0
100
AcDbAttributeDefinition
  3
data
  2
DATA
 70
     0
 74
     2
  0
ATTDEF
  5
BAE
330
B9E
100
AcDbEntity
  8
1
100
AcDbText
 10
-168.5396372253371
 20
13.15916722632639
 30
0.0
 40
2.0
  1
XX/XX/XXXX
 41
0.8
  7
SANINDUSA
 72
     4
 11
-161.5099528734231
 21
14.0
 31
0.0
100
AcDbAttributeDefinition
  3
Data projecto
  2
DATA_PROJ
 70
     0
  0
ATTDEF
  5
BAF
330
B9E
100
AcDbEntity
  8
1
100
AcDbText
 10
-150.8658110728766
 20
13.24983210208193
 30
0.0
 40
2.0
  1
xxxxxxxx
 41
0.8
  7
SANINDUSA
 72
     4
 11
-145.6564087894649
 21
14.0
 31
0.0
100
AcDbAttributeDefinition
  3
nome de quem projectou
  2
NOME
 70
     0
  0
ATTDEF
  5
BB0
330
B9E
100
AcDbEntity
  8
1
100
AcDbText
 10
-168.5396372253371
 20
9.159167226326394
 30
0.0
 40
2.0
  1
XX/XX/XXXX
 41
0.8
  7
SANINDUSA
 72
     4
 11
-161.5099528734231
 21
10.0
 31
0.0
100
AcDbAttributeDefinition
  3
Data desenhou
  2
DATA_DES
 70
     0
  0
ATTDEF
  5
BB1
330
B9E
100
AcDbEntity
  8
1
100
AcDbText
 10
-151.516986358303
 20
9.249832102081933
 30
0.0
 40
2.0
  1
xxxxxxxxx
 41
0.8
  7
SANINDUSA
 72
     4
 11
-145.6564087894649
 21
10.0
 31
0.0
100
AcDbAttributeDefinition
  3
nome
  2
NOME
 70
     0
  0
ATTDEF
  5
BB2
330
B9E
100
AcDbEntity
  8
1
100
AcDbText
 10
-127.2924214135946
 20
14.1979876583216
 30
0.0
 40
2.0
  1
Vitreous China
 41
0.8
  7
SANINDUSA
 72
     4
 11
-119.231709526422
 21
15.22216495852308
 31
0.0
100
AcDbAttributeDefinition
  3
Nome do Material:
  2
MATERIAL
 70
     0
  0
ATTDEF
  5
BB3
330
B9E
100
AcDbEntity
  8
1
100
AcDbText
 10
-103.1563452122093
 20
14.38019043949261
 30
0.0
 40
2.0
  1
Branco
 41
0.8
  7
SANINDUSA
 72
     4
 11
-99.33418268702462
 21
15.35937109765245
 31
0.0
100
AcDbAttributeDefinition
  3
cor da peça
  2
COR
 70
     0
  0
ATTDEF
  5
BB4
330
B9E
100
AcDbEntity
  8
1
100
AcDbText
 10
-116.7235057085292
 20
5.975822699798522
 30
0.0
 40
2.0
  1
Vidrado
 41
0.8
  7
SANINDUSA
 72
     4
 11
-112.5
 21
7.0
 31
0.0
100
AcDbAttributeDefinition
  3
Tipo de acabamento:
  2
ACABAMENTO
 70
     0
  0
ATTDEF
  5
BB5
330
B9E
100
AcDbEntity
  8
1
100
AcDbText
 10
-79.18527869967246
 20
16.65066409850533
 30
0.0
 40
2.0
  1
XXXXXXX
 41
0.8
  7
SANINDUSA
 72
     4
 11
-73.90871724903445
 21
17.65066409850533
 31
0.0
100
AcDbAttributeDefinition
  3
Normas
  2
NORMAS
 70
     0
  0
ATTDEF
  5
BB6
330
B9E
100
AcDbEntity
  8
1
100
AcDbText
 10
-30.55312290127603
 20
14.0
 30
0.0
 40
2.0
  1
XXXXXXXXXXXXXX
 41
0.8
  7
SANINDUSA
 72
     4
 11
-20.0
 21
15.0
 31
0.0
100
AcDbAttributeDefinition
  3
Substitui o desenho:
  2
SUBSTITUI
 70
     0
  0
ATTDEF
  5
BB7
330
B9E
100
AcDbEntity
  8
1
100
AcDbText
 10
-31.30691739422431
 20
6.0
 30
0.0
 40
2.0
  1
XXXXXXXXXXXXXXX
 41
0.8
  7
SANINDUSA
 72
     4
 11
-20.0
 21
7.0
 31
0.0
100
AcDbAttributeDefinition
  3
Substituido por:
  2
SUBSTITUIDO
 70
     0
  0
ATTDEF
  5
BB8
330
B9E
100
AcDbEntity
  8
1
100
AcDbText
 10
-110.0220608548302
 20
1.478208457928303
 30
0.0
 40
2.0
  1
XXXXXXXXXXXXXXXXXXXXXXXXXXXXXXXXXX
 41
0.8
  7
SANINDUSA
 11
-110.0220608548302
 21
2.478208457928303
 31
0.0
100
AcDbAttributeDefinition
  3
Localização do desenho:
  2
LOC-DWG
 70
     0
 74
     2
  0
LINE
  5
BB9
330
B9E
100
AcDbEntity
  8
3
100
AcDbLine
 10
-135.0
 20
4.0
 30
0.0
 11
0.0000000000004547
 21
4.0
 31
0.0
  0
LINE
  5
BBA
330
B9E
100
AcDbEntity
  8
3
100
AcDbLine
 10
-90.00000000000046
 20
12.0
 30
0.0
 11
-135.0
 21
12.0
 31
0.0
  0
LINE
  5
BBB
330
B9E
100
AcDbEntity
  8
3
100
AcDbLine
 10
-135.0
 20
32.5
 30
0.0
 11
-40.0
 21
32.5
 31
0.0
  0
TEXT
  5
BBC
330
B9E
100
AcDbEntity
  8
1
100
AcDbText
 10
-134.0
 20
1.25
 30
0.0
 40
2.0
  1
Localização do des.:
 41
0.8
  7
SANINDUSA
 11
-134.0
 21
2.25
 31
0.0
100
AcDbText
 73
     2
  0
LINE
  5
BBD
330
B9E
100
AcDbEntity
  8
3
100
AcDbLine
 10
-180.0
 20
65.0
 30
0.0
 11
0.0
 21
65.0
 31
0.0
  0
LINE
  5
BBE
330
B9E
100
AcDbEntity
  8
leg fin
100
AcDbLine
 10
-40.0
 20
25.05956924886846
 30
0.0
 11
-135.0
 21
25.05956924886846
 31
0.0
  0
LINE
  5
BBF
330
B9E
100
AcDbEntity
  8
leg fin
100
AcDbLine
 10
-40.0
 20
28.5
 30
0.0
 11
-135.0
 21
28.5
 31
0.0
  0
LINE
  5
BC0
330
B9E
100
AcDbEntity
  8
3
100
AcDbLine
 10
-135.0
 20
50.0
 30
0.0
 11
-40.0
 21
50.0
 31
0.0
  0
TEXT
  5
BC1
330
B9E
100
AcDbEntity
  8
1
100
AcDbText
 10
-134.0
 20
29.75
 30
0.0
 40
2.0
  1
Desenho nº:
 41
0.8
  7
SANINDUSA
 11
-134.0
 21
30.75
 31
0.0
100
AcDbText
 73
     2
  0
TEXT
  5
BC2
330
B9E
100
AcDbEntity
  8
1
100
AcDbText
 10
-134.0
 20
9.25
 30
0.0
 40
2.0
  1
Acabamento:
 41
0.8
  7
SANINDUSA
 11
-134.0
 21
10.25
 31
0.0
100
AcDbText
 73
     2
  0
LINE
  5
BC3
330
B9E
100
AcDbEntity
  8
3
100
AcDbLine
 10
-180.0
 20
20.0
 30
0.0
 11
0.0
 21
20.0
 31
0.0
  0
LINE
  5
BC4
330
B9E
100
AcDbEntity
  8
1
100
AcDbLine
 10
-174.5810776056337
 20
55.5
 30
0.0
 11
-174.5810776056337
 21
65.0
 31
0.0
  0
LINE
  5
BC5
330
B9E
100
AcDbEntity
  8
1
100
AcDbLine
 10
-168.9210461879161
 20
55.5
 30
0.0
 11
-168.9210461879161
 21
65.0
 31
0.0
  0
LINE
  5
BC6
330
B9E
100
AcDbEntity
  8
1
100
AcDbLine
 10
-154.0988595589306
 20
55.5
 30
0.0
 11
-154.0988595589306
 21
65.0
 31
0.0
  0
LINE
  5
BC7
330
B9E
100
AcDbEntity
  8
3
100
AcDbLine
 10
-180.0
 20
65.0
 30
0.0
 11
-180.0
 21
0.0
 31
0.0
  0
LINE
  5
BC8
330
B9E
100
AcDbEntity
  8
3
100
AcDbLine
 10
-135.0
 20
0.0
 30
0.0
 11
-135.0
 21
65.0
 31
0.0
  0
TEXT
  5
BC9
330
B9E
100
AcDbEntity
  8
1
100
AcDbText
 10
-179.0
 20
9.75
 30
0.0
 40
1.5
  1
Des.
 41
0.8
  7
SANINDUSA
 11
-179.0
 21
10.5
 31
0.0
100
AcDbText
 73
     2
  0
LINE
  5
BCA
330
B9E
100
AcDbEntity
  8
1
100
AcDbLine
 10
-168.9210461879161
 20
20.0
 30
0.0
 11
-168.9210461879161
 21
0.0
 31
0.0
  0
LINE
  5
BCB
330
B9E
100
AcDbEntity
  8
1
100
AcDbLine
 10
-154.0988595589306
 20
20.0
 30
0.0
 11
-154.0988595589306
 21
0.0
 31
0.0
  0
LINE
  5
BCC
330
B9E
100
AcDbEntity
  8
1
100
AcDbLine
 10
-180.0
 20
4.0
 30
0.0
 11
-135.0
 21
4.0
 31
0.0
  0
LINE
  5
BCD
330
B9E
100
AcDbEntity
  8
1
100
AcDbLine
 10
-180.0
 20
8.0
 30
0.0
 11
-135.0
 21
8.0
 31
0.0
  0
TEXT
  5
BCE
330
B9E
100
AcDbEntity
  8
1
100
AcDbText
 10
-179.0
 20
1.73257823687436
 30
0.0
 40
1.5
  1
Aprov.
 41
0.8
  7
SANINDUSA
 11
-179.0
 21
2.48257823687436
 31
0.0
100
AcDbText
 73
     2
  0
TEXT
  5
BCF
330
B9E
100
AcDbEntity
  8
1
100
AcDbText
 10
-179.0
 20
5.75
 30
0.0
 40
1.5
  1
Ver.
 41
0.8
  7
SANINDUSA
 11
-179.0
 21
6.5
 31
0.0
100
AcDbText
 73
     2
  0
LINE
  5
BD0
330
B9E
100
AcDbEntity
  8
1
100
AcDbLine
 10
-180.0
 20
16.0
 30
0.0
 11
-135.0
 21
16.0
 31
0.0
  0
LINE
  5
BD1
330
B9E
100
AcDbEntity
  8
1
100
AcDbLine
 10
-180.0
 20
12.0
 30
0.0
 11
-135.0
 21
12.0
 31
0.0
  0
TEXT
  5
BD2
330
B9E
100
AcDbEntity
  8
1
100
AcDbText
 10
-179.0
 20
13.75
 30
0.0
 40
1.5
  1
Proj.
 41
0.8
  7
SANINDUSA
 11
-179.0
 21
14.5
 31
0.0
100
AcDbText
 73
     2
  0
TEXT
  5
BD3
330
B9E
100
AcDbEntity
  8
1
100
AcDbText
 10
-167.9210461879161
 20
17.75
 30
0.0
 40
1.5
  1
Data
 41
0.8
  7
SANINDUSA
 11
-167.9210461879161
 21
18.5
 31
0.0
100
AcDbText
 73
     2
  0
TEXT
  5
BD4
330
B9E
100
AcDbEntity
  8
1
100
AcDbText
 10
-153.0988595589306
 20
17.75
 30
0.0
 40
1.5
  1
Nome
 41
0.8
  7
SANINDUSA
 11
-153.0988595589306
 21
18.5
 31
0.0
100
AcDbText
 73
     2
  0
LINE
  5
BD5
330
B9E
100
AcDbEntity
  8
leg fin
100
AcDbLine
 10
-130.0
 20
20.0
 30
0.0
 11
-130.0
 21
28.5
 31
0.0
  0
TEXT
  5
BD6
330
B9E
100
AcDbEntity
  8
1
100
AcDbText
 10
-134.0
 20
17.25
 30
0.0
 40
2.0
  1
Material:
 41
0.8
  7
SANINDUSA
 11
-134.0
 21
18.25
 31
0.0
100
AcDbText
 73
     2
  0
TEXT
  5
BD7
330
B9E
100
AcDbEntity
  8
1
100
AcDbText
 10
-129.0
 20
26.43288406845113
 30
0.0
 40
1.5
  1
Ano:
 41
0.8
  7
SANINDUSA
 11
-129.0
 21
27.18288406845113
 31
0.0
100
AcDbText
 73
     2
  0
LINE
  5
BD8
330
B9E
100
AcDbEntity
  8
1
100
AcDbLine
 10
-180.0
 20
55.5
 30
0.0
 11
-135.0
 21
55.5
 31
0.0
  0
TEXT
  5
BD9
330
B9E
100
AcDbEntity
  8
1
100
AcDbText
 10
-179.0
 20
52.67772246885193
 30
0.0
 40
1.5
  1
descrição
 41
0.8
  7
SANINDUSA
 11
-179.0
 21
53.42772246885193
 31
0.0
100
AcDbText
 73
     2
  0
TEXT
  5
BDA
330
B9E
100
AcDbEntity
  8
1
100
AcDbText
 10
-134.0
 20
47.25
 30
0.0
 40
2.0
  1
Peça:
 41
0.8
  7
SANINDUSA
 11
-134.0
 21
48.25
 31
0.0
100
AcDbText
 73
     2
  0
LINE
  5
BDB
330
B9E
100
AcDbEntity
  8
1
100
AcDbLine
 10
-180.0
 20
59.5
 30
0.0
 11
-135.0
 21
59.5
 31
0.0
  0
TEXT
  5
BDC
330
B9E
100
AcDbEntity
  8
1
100
AcDbText
 10
-173.5810776056337
 20
62.75
 30
0.0
 40
1.5
  1
Alt.
 41
0.8
  7
SANINDUSA
 11
-173.5810776056337
 21
63.5
 31
0.0
100
AcDbText
 73
     2
  0
TEXT
  5
BDD
330
B9E
100
AcDbEntity
  8
1
100
AcDbText
 10
-179.0
 20
62.75
 30
0.0
 40
1.5
  1
Rev.
 41
0.8
  7
SANINDUSA
 11
-179.0
 21
63.5
 31
0.0
100
AcDbText
 73
     2
  0
TEXT
  5
BDE
330
B9E
100
AcDbEntity
  8
1
100
AcDbText
 10
-167.9210461879161
 20
62.75
 30
0.0
 40
1.5
  1
Data
 41
0.8
  7
SANINDUSA
 11
-167.9210461879161
 21
63.5
 31
0.0
100
AcDbText
 73
     2
  0
TEXT
  5
BDF
330
B9E
100
AcDbEntity
  8
1
100
AcDbText
 10
-153.0988595589306
 20
62.75
 30
0.0
 40
1.5
  1
Nome
 41
0.8
  7
SANINDUSA
 11
-153.0988595589306
 21
63.5
 31
0.0
100
AcDbText
 73
     2
  0
TEXT
  5
BE0
330
B9E
100
AcDbEntity
  8
1
100
AcDbText
 10
-134.0
 20
62.25
 30
0.0
 40
2.0
  1
Produto:
 41
0.8
  7
SANINDUSA
 11
-134.0
 21
63.25
 31
0.0
100
AcDbText
 73
     2
  0
LINE
  5
BE1
330
B9E
100
AcDbEntity
  8
3
100
AcDbLine
 10
-40.0
 20
4.0
 30
0.0
 11
-40.0
 21
65.0
 31
0.0
  0
LWPOLYLINE
  5
BE2
102
{ACAD_REACTORS
330
BEC
102
}
330
B9E
100
AcDbEntity
  8
9
100
AcDbPolyline
 90
       12
 70
     1
 43
0.0
 10
-3.038714600644652
 20
58.90010174665076
 10
-5.726962862472191
 20
58.90010174665076
 10
-5.726962862472191
 20
58.5001017466509
 10
-3.038748516195028
 20
58.5001017466509
 42
-0.4142135623731731
 10
-2.638748516194482
 20
58.1001017466508
 10
-2.638748516194482
 20
57.42799728675596
 10
-5.21497371544865
 20
57.42799728675596
 42
0.4142135623731289
 10
-6.014973715448377
 20
56.627997286756
 10
-6.014973715448377
 20
55.92380871629643
 42
0.4142135623731132
 10
-5.21497371544865
 20
55.12380871629648
 10
-2.23871460064447
 20
55.12380871629648
 10
-2.23871460064447
 20
58.10010174665103
 42
0.4142135623730717
  0
LWPOLYLINE
  5
BE3
102
{ACAD_REACTORS
330
BEC
102
}
330
B9E
100
AcDbEntity
  8
9
100
AcDbPolyline
 90
       20
 70
     1
 43
0.0
 10
-10.01531287095122
 20
57.82799728675581
 10
-10.01531287095122
 20
58.10010174665103
 42
-0.4142135623730744
 10
-9.615312870951584
 20
58.5001017466509
 10
-6.92703069357276
 20
58.5001017466509
 10
-6.92703069357276
 20
58.90010174665076
 10
-9.615346786501959
 20
58.90010174665076
 42
0.4142135623730883
 10
-10.41534678650168
 20
58.1001017466508
 10
-10.41534678650168
 20
57.82796337120567
 42
0.4142135623730717
 10
-9.615346786501959
 20
57.02796337120571
 10
-7.423079531965413
 20
57.02796337120571
 42
-0.4142135623730847
 10
-7.023079531965322
 20
56.62796337120562
 10
-7.023079531965322
 20
55.90786840766487
 42
-0.4142135623730744
 10
-7.423079531965413
 20
55.507868407665
 10
-10.41534678650168
 20
55.507868407665
 10
-10.41534678650168
 20
55.12380871629648
 10
-7.445787917283723
 20
55.12380871629648
 42
0.4114777732064574
 10
-6.645822882998345
 20
55.9163291493976
 10
-6.639238813324936
 20
56.62051771985716
 42
0.4169546541682913
 10
-7.439203847610315
 20
57.42799728675596
 10
-9.615312870951584
 20
57.42799728675596
 42
-0.4142135623731576
  0
LWPOLYLINE
  5
BE4
102
{ACAD_REACTORS
330
BEC
102
}
330
B9E
100
AcDbEntity
  8
9
100
AcDbPolyline
 90
       12
 70
     1
 43
0.0
 10
-14.41561811090378
 20
58.90010174665076
 10
-14.79964388672215
 20
58.90010174665076
 10
-14.79964388672215
 20
55.92380871629643
 42
0.4142135623731133
 10
-13.99964388672242
 20
55.12380871629648
 10
-11.8233508563676
 20
55.12380871629648
 42
0.4142135623730872
 10
-11.02335085636741
 20
55.92380871629643
 10
-11.02335085636741
 20
58.90010174665076
 10
-11.42338477191788
 20
58.90010174665076
 10
-11.42338477191788
 20
55.91567577726095
 42
-0.4131711701795318
 10
-11.82196067063523
 20
55.51567831234956
 10
-14.0141940096214
 20
55.50787335710947
 42
-0.4152567234624407
 10
-14.41561811090378
 20
55.90787082202087
  0
LWPOLYLINE
  5
BE5
102
{ACAD_REACTORS
330
BEC
102
}
330
B9E
100
AcDbEntity
  8
9
100
AcDbPolyline
 90
        6
 70
     1
 43
0.0
 10
-15.80771578768872
 20
55.507868407665
 10
-18.39994912667453
 20
55.507868407665
 42
-0.4142135623731731
 10
-18.79994912667462
 20
55.90786840766487
 10
-18.79994912667462
 20
58.10010174665103
 42
-0.4142135623730744
 10
-18.39994912667453
 20
58.5001017466509
 10
-15.80771578768872
 20
58.5001017466509
  0
LWPOLYLINE
  5
BE6
102
{ACAD_REACTORS
330
BEC
102
}
330
B9E
100
AcDbEntity
  8
9
100
AcDbPolyline
 90
        8
 70
     1
 43
0.0
 10
-15.4236900118708
 20
59.87619128370352
 10
-15.80771578768872
 20
59.87619128370352
 10
-15.80771578768872
 20
58.90010174665076
 10
-18.39176256411201
 20
58.90010174665076
 42
0.4131164467977967
 10
-19.19175694739761
 20
58.1030995310698
 10
-19.1999120763262
 20
55.92680650071542
 42
0.4153115297271718
 10
-18.39991769304061
 20
55.12380871629648
 10
-15.4236900118708
 20
55.12380871629648
  0
LWPOLYLINE
  5
BE7
102
{ACAD_REACTORS
330
BEC
102
}
330
B9E
100
AcDbEntity
  8
9
100
AcDbPolyline
 90
       10
 70
     1
 43
0.0
 10
-20.59201288790928
 20
58.90010174665076
 10
-23.56830591826338
 20
58.90010174665076
 10
-23.56830591826338
 20
55.12380871629648
 10
-23.18424622689509
 20
55.12380871629648
 10
-23.18424622689509
 20
58.5001017466509
 10
-20.59204680345965
 20
58.5001017466509
 42
-0.4142135623730898
 10
-20.19204680345956
 20
58.1001017466508
 10
-20.19204680345956
 20
55.12380871629648
 10
-19.79201288790909
 20
55.12380871629648
 10
-19.79201288790909
 20
58.10010174665103
 42
0.4142135623731132
  0
LWPOLYLINE
  5
BE8
102
{ACAD_REACTORS
330
BEC
102
}
330
B9E
100
AcDbEntity
  8
9
100
AcDbPolyline
 90
        4
 70
     1
 43
0.0
 10
-24.19231812786165
 20
58.90010174665076
 10
-24.57637781922995
 20
58.90010174665076
 10
-24.57637781922995
 20
55.12380871629648
 10
-24.19231812786165
 20
55.12380871629648
  0
LWPOLYLINE
  5
BE9
102
{ACAD_REACTORS
330
BEC
102
}
330
B9E
100
AcDbEntity
  8
9
100
AcDbPolyline
 90
       10
 70
     1
 43
0.0
 10
-28.57661522808212
 20
58.5001017466509
 10
-25.98444972019706
 20
58.5001017466509
 42
-0.4142135623731731
 10
-25.58444972019652
 20
58.1001017466508
 10
-25.58444972019652
 20
55.12380871629648
 10
-25.2004239443786
 20
55.12380871629648
 10
-25.2004239443786
 20
58.10010174665103
 42
0.4142135623730717
 10
-26.00042394437833
 20
58.90010174665076
 10
-28.97664914363259
 20
58.90010174665076
 10
-28.97664914363259
 20
55.12380871629648
 10
-28.57661522808212
 20
55.12380871629648
  0
LWPOLYLINE
  5
BEA
102
{ACAD_REACTORS
330
BEC
102
}
330
B9E
100
AcDbEntity
  8
9
100
AcDbPolyline
 90
       12
 70
     1
 43
0.0
 10
-29.58465321349832
 20
58.10010174665103
 42
0.4142135623730716
 10
-30.3846532134985
 20
58.90010174665076
 10
-33.07296930642724
 20
58.90010174665076
 10
-33.07296930642724
 20
58.5001017466509
 10
-30.38468712904842
 20
58.5001017466509
 42
-0.4142135623730067
 10
-29.98468712904878
 20
58.1001017466508
 10
-29.98468712904878
 20
57.42799728675618
 10
-32.56098015940324
 20
57.42799728675596
 42
0.4142135623731289
 10
-33.36098015940343
 20
56.627997286756
 10
-33.36098015940343
 20
55.92380871629643
 42
0.4142135623731132
 10
-32.56098015940324
 20
55.12380871629648
 10
-29.58465321349832
 20
55.12380871629648
  0
LWPOLYLINE
  5
BEB
102
{ACAD_REACTORS
330
BEC
102
}
330
B9E
100
AcDbEntity
  8
9
100
AcDbPolyline
 90
       20
 70
     1
 43
0.0
 10
-34.7850262845518
 20
57.42799728675596
 10
-36.96125148380543
 20
57.42799728675596
 42
-0.4142135623730898
 10
-37.36125148380552
 20
57.82799728675604
 10
-37.36125148380552
 20
58.10010174665103
 42
-0.4142135623730744
 10
-36.96125148380543
 20
58.5001017466509
 10
-34.27303713752781
 20
58.50010174665067
 10
-34.27303713752781
 20
58.90010174665076
 10
-36.96128539935535
 20
58.90010174665076
 42
0.4142135623731289
 10
-37.76128539935553
 20
58.1001017466508
 10
-37.76128539935553
 20
57.82796337120567
 42
0.4142135623730716
 10
-36.9612853993558
 20
57.02796337120571
 10
-34.76901814481926
 20
57.02796337120571
 42
-0.414213562373168
 10
-34.36901814481962
 20
56.62796337120562
 10
-34.36901814481962
 20
55.90786840766487
 42
-0.4142135623730744
 10
-34.76901814481926
 20
55.507868407665
 10
-37.76128539935553
 20
55.507868407665
 10
-37.76128539935553
 20
55.12380871629648
 10
-34.7850262845518
 20
55.12380871629648
 42
0.4142135623731289
 10
-33.98502628455162
 20
55.92380871629643
 10
-33.98502628455162
 20
56.627997286756
 42
0.4142135623731132
  0
HATCH
  5
BEC
330
B9E
100
AcDbEntity
  8
9
100
AcDbHatch
 10
0.0
 20
0.0
 30
0.0
210
0.0
220
0.0
230
1.0
  2
SOLID
 70
     1
 71
     1
 91
       13
 92
        7
 72
     1
 73
     1
 93
       20
 10
-34.36901814481962
 20
55.90786840766487
 42
-0.414213562372991
 10
-34.76901814481926
 20
55.507868407665
 42
0.0
 10
-37.76128539935553
 20
55.507868407665
 42
0.0
 10
-37.76128539935553
 20
55.12380871629648
 42
0.0
 10
-34.7850262845518
 20
55.12380871629648
 42
0.4142135623731705
 10
-33.98502628455162
 20
55.92380871629666
 42
0.0
 10
-33.98502628455162
 20
56.627997286756
 42
0.4142135623731547
 10
-34.7850262845518
 20
57.42799728675596
 42
0.0
 10
-36.96125148380543
 20
57.42799728675596
 42
-0.4142135623730898
 10
-37.36125148380552
 20
57.82799728675604
 42
0.0
 10
-37.36125148380552
 20
58.1001017466508
 42
-0.4142135623731575
 10
-36.96125148380543
 20
58.5001017466509
 42
0.0
 10
-34.27303713752781
 20
58.50010174665067
 42
0.0
 10
-34.27303713752781
 20
58.90010174665076
 42
0.0
 10
-36.96128539935535
 20
58.90010174665076
 42
0.4142135623731705
 10
-37.76128539935553
 20
58.10010174665058
 42
0.0
 10
-37.76128539935553
 20
57.82796337120544
 42
0.4142135623730299
 10
-36.9612853993558
 20
57.02796337120571
 42
0.0
 10
-34.76901814481926
 20
57.02796337120571
 42
-0.4142135623730015
 10
-34.36901814481962
 20
56.62796337120608
 42
0.0
 97
        1
330
BEB
 92
        7
 72
     1
 73
     1
 93
       12
 10
-33.36098015940343
 20
55.92380871629666
 42
0.4142135623731547
 10
-32.56098015940324
 20
55.12380871629648
 42
0.0
 10
-29.58465321349877
 20
55.12380871629648
 42
0.0
 10
-29.58465321349832
 20
58.10010174665058
 42
0.4142135623731964
 10
-30.3846532134985
 20
58.90010174665076
 42
0.0
 10
-33.07296930642724
 20
58.90010174665076
 42
0.0
 10
-33.07296930642724
 20
58.50010174665067
 42
0.0
 10
-30.38468712904887
 20
58.5001017466509
 42
-0.4142135623732564
 10
-29.98468712904878
 20
58.10010174665103
 42
0.0
 10
-29.98468712904923
 20
57.42799728675596
 42
0.0
 10
-32.56098015940324
 20
57.42799728675596
 42
0.4142135623731705
 10
-33.36098015940343
 20
56.627997286756
 42
0.0
 97
        1
330
BEA
 92
       22
 72
     1
 73
     1
 93
        6
 10
-32.97692046803468
 20
56.62796337120562
 42
-0.4142135623731576
 10
-32.57692046803459
 20
57.02796337120571
 42
0.0
 10
-29.98468712904878
 20
57.02796337120571
 42
0.0
 10
-29.98468712904878
 20
55.507868407665
 42
0.0
 10
-32.57692046803459
 20
55.507868407665
 42
-0.4142135623731731
 10
-32.97692046803468
 20
55.90786840766487
 42
0.0
 97
        1
330
C11
 92
        7
 72
     1
 73
     1
 93
       10
 10
-28.57661522808212
 20
58.5001017466509
 42
0.0
 10
-25.98444972019661
 20
58.5001017466509
 42
-0.4142135623730067
 10
-25.58444972019652
 20
58.10010174665058
 42
0.0
 10
-25.58444972019606
 20
55.12380871629648
 42
0.0
 10
-25.20042394437906
 20
55.12380871629648
 42
0.0
 10
-25.2004239443786
 20
58.1001017466508
 42
0.4142135623731134
 10
-26.00042394437833
 20
58.90010174665076
 42
0.0
 10
-28.97664914363259
 20
58.90010174665076
 42
0.0
 10
-28.97664914363259
 20
55.12380871629648
 42
0.0
 10
-28.57661522808212
 20
55.12380871629648
 42
0.0
 97
        1
330
BE9
 92
        7
 72
     0
 73
     1
 93
        4
 10
-24.57637781922995
 20
55.12380871629648
 10
-24.19231812786165
 20
55.12380871629648
 10
-24.19231812786165
 20
58.90010174665076
 10
-24.57637781922995
 20
58.90010174665076
 97
        1
330
BE8
 92
        7
 72
     0
 73
     1
 93
        4
 10
-24.19231812786165
 20
59.87619128370352
 10
-24.5763778192304
 20
59.87619128370352
 10
-24.5763778192304
 20
59.28412752246913
 10
-24.1923181278612
 20
59.28412752246913
 97
        1
330
C12
 92
        7
 72
     1
 73
     1
 93
       10
 10
-23.18424622689509
 20
58.5001017466509
 42
0.0
 10
-20.59204680345965
 20
58.5001017466509
 42
-0.4142135623730898
 10
-20.19204680345956
 20
58.1001017466508
 42
0.0
 10
-20.19204680345956
 20
55.12380871629648
 42
0.0
 10
-19.79201288790909
 20
55.12380871629648
 42
0.0
 10
-19.79201288790909
 20
58.1001017466508
 42
0.4142135623731547
 10
-20.59201288790928
 20
58.90010174665076
 42
0.0
 10
-23.56830591826338
 20
58.90010174665076
 42
0.0
 10
-23.56830591826338
 20
55.12380871629648
 42
0.0
 10
-23.18424622689463
 20
55.12380871629648
 42
0.0
 97
        1
330
BE7
 92
        7
 72
     1
 73
     1
 93
        8
 10
-19.1999120763262
 20
55.92680650071542
 42
0.4153115297271299
 10
-18.39991769304061
 20
55.12380871629648
 42
0.0
 10
-15.4236900118708
 20
55.12380871629648
 42
0.0
 10
-15.4236900118708
 20
59.87619128370352
 42
0.0
 10
-15.80771578768872
 20
59.87619128370352
 42
0.0
 10
-15.80771578768872
 20
58.90010174665076
 42
0.0
 10
-18.39176256411201
 20
58.90010174665076
 42
0.4131164467977965
 10
-19.19175694739761
 20
58.1030995310698
 42
0.0
 97
        1
330
BE6
 92
       22
 72
     1
 73
     1
 93
        6
 10
-18.79994912667462
 20
58.1001017466508
 42
-0.4142135623731575
 10
-18.39994912667453
 20
58.5001017466509
 42
0.0
 10
-15.80771578768872
 20
58.50010174665067
 42
0.0
 10
-15.80771578768827
 20
55.507868407665
 42
0.0
 10
-18.39994912667453
 20
55.507868407665
 42
-0.4142135623731731
 10
-18.79994912667462
 20
55.90786840766487
 42
0.0
 97
        1
330
BE5
 92
        7
 72
     1
 73
     1
 93
       12
 10
-14.79964388672215
 20
55.92380871629621
 42
0.4142135623729885
 10
-13.99964388672242
 20
55.12380871629648
 42
0.0
 10
-11.8233508563676
 20
55.12380871629648
 42
0.4142135623731289
 10
-11.02335085636741
 20
55.92380871629666
 42
0.0
 10
-11.02335085636741
 20
58.90010174665076
 42
0.0
 10
-11.42338477191788
 20
58.90010174665076
 42
0.0
 10
-11.42338477191788
 20
55.91567577726095
 42
-0.4131711701795319
 10
-11.82196067063523
 20
55.51567831234956
 42
0.0
 10
-14.01419400962095
 20
55.50787335710947
 42
-0.4152567234626918
 10
-14.41561811090378
 20
55.90787082202087
 42
0.0
 10
-14.41561811090378
 20
58.90010174665076
 42
0.0
 10
-14.7996438867226
 20
58.90010174665076
 42
0.0
 97
        1
330
BE4
 92
        7
 72
     1
 73
     1
 93
       20
 10
-7.423079531965413
 20
57.02796337120571
 42
-0.414213562373168
 10
-7.023079531965322
 20
56.62796337120562
 42
0.0
 10
-7.023079531965322
 20
55.90786840766487
 42
-0.4142135623731575
 10
-7.423079531965413
 20
55.507868407665
 42
0.0
 10
-10.41534678650168
 20
55.507868407665
 42
0.0
 10
-10.41534678650168
 20
55.12380871629648
 42
0.0
 10
-7.445787917283723
 20
55.12380871629648
 42
0.4114777732065809
 10
-6.645822882998345
 20
55.91632914939783
 42
0.0
 10
-6.639238813324936
 20
56.62051771985716
 42
0.4169546541682913
 10
-7.439203847610315
 20
57.42799728675596
 42
0.0
 10
-9.615312870951584
 20
57.42799728675596
 42
-0.4142135623729911
 10
-10.01531287095122
 20
57.82799728675581
 42
0.0
 10
-10.01531287095122
 20
58.10010174665103
 42
-0.414213562372991
 10
-9.615312870951584
 20
58.5001017466509
 42
0.0
 10
-6.92703069357276
 20
58.50010174665067
 42
0.0
 10
-6.927030693572305
 20
58.90010174665076
 42
0.0
 10
-9.615346786501959
 20
58.90010174665076
 42
0.4142135623730467
 10
-10.41534678650168
 20
58.10010174665103
 42
0.0
 10
-10.41534678650168
 20
57.82796337120544
 42
0.4142135623730301
 10
-9.615346786501959
 20
57.02796337120571
 42
0.0
 97
        1
330
BE3
 92
        7
 72
     1
 73
     1
 93
       12
 10
-5.21497371544865
 20
57.42799728675596
 42
0.4142135623730871
 10
-6.014973715448377
 20
56.627997286756
 42
0.0
 10
-6.014973715448377
 20
55.92380871629621
 42
0.4142135623730715
 10
-5.21497371544865
 20
55.12380871629648
 42
0.0
 10
-2.23871460064447
 20
55.12380871629648
 42
0.0
 10
-2.23871460064447
 20
58.10010174665058
 42
0.414213562373155
 10
-3.038714600644652
 20
58.90010174665076
 42
0.0
 10
-5.726962862471737
 20
58.90010174665076
 42
0.0
 10
-5.726962862472191
 20
58.5001017466509
 42
0.0
 10
-3.038748516194573
 20
58.5001017466509
 42
-0.4142135623730067
 10
-2.638748516194482
 20
58.10010174665058
 42
0.0
 10
-2.638748516194482
 20
57.42799728675596
 42
0.0
 97
        1
330
BE2
 92
       22
 72
     1
 73
     1
 93
        6
 10
-2.638748516194937
 20
57.02796337120571
 42
0.0
 10
-2.638748516194482
 20
55.50786840766477
 42
0.0
 10
-5.21497371544865
 20
55.507868407665
 42
-0.4142135623731731
 10
-5.614973715448741
 20
55.90786840766509
 42
0.0
 10
-5.614973715448741
 20
56.62796337120562
 42
-0.4142135623731576
 10
-5.21497371544865
 20
57.02796337120571
 42
0.0
 97
        1
330
C0D
 75
     0
 76
     1
 47
0.0407044778999864
 98
       13
 10
-34.18710075113677
 20
56.16907953933765
 10
-33.12851374392494
 20
56.49471602641233
 10
-33.12851374392494
 20
56.49471602641233
 10
-28.77202873835904
 20
57.51232930166111
 10
-24.41554807250941
 20
57.91937341678636
 10
-24.41554807250941
 20
59.384734621186
 10
-23.31624584658039
 20
58.3264175319116
 10
-19.04119127844888
 20
57.75655517324913
 10
-19.04119127844888
 20
57.75655517324913
 10
-14.64399105416578
 20
57.43091868617466
 10
-8.048195057457178
 20
57.22739662861204
 10
-4.017427461911665
 20
57.18669281458665
 10
-4.017427461911665
 20
57.18669281458665
  0
TEXT
  5
BED
330
B9E
100
AcDbEntity
  8
leg fin
100
AcDbText
 10
3.391127401597259
 20
2.107634911895729
 30
0.0
 40
1.5
  1
Este desenho é propriedade da Sanindusa, S.A., e não pode ser copiado nem divulgado sem nossa autorização.
 50
90.0
 41
0.8
  7
SANINDUSA
100
AcDbText
  0
LINE
  5
BEE
330
B9E
100
AcDbEntity
  8
3
100
AcDbLine
 10
-90.0
 20
4.0
 30
0.0
 11
-90.0
 21
12.0
 31
0.0
  0
TEXT
  5
BEF
330
B9E
100
AcDbEntity
  8
1
100
AcDbText
 10
-39.0
 20
9.25
 30
0.0
 40
2.0
  1
Substituido por:
 41
0.8
  7
SANINDUSA
 11
-39.0
 21
10.25
 31
0.0
100
AcDbText
 73
     2
  0
POINT
  5
BF0
330
B9E
100
AcDbEntity
  8
SANINDUSA
100
AcDbPoint
 10
0.0
 20
0.0
 30
0.0
  0
TEXT
  5
BF1
330
B9E
100
AcDbEntity
  8
1
100
AcDbText
 10
-89.0
 20
16.74927010445663
 30
0.0
 40
2.0
  1
Normas:
 41
0.8
  7
SANINDUSA
 11
-89.0
 21
17.74927010445663
 31
0.0
100
AcDbText
 73
     2
  0
LINE
  5
BF2
330
B9E
100
AcDbEntity
  8
3
100
AcDbLine
 10
-90.0
 20
12.0
 30
0.0
 11
-90.0
 21
20.0
 31
0.0
  0
LINE
  5
BF3
330
B9E
100
AcDbEntity
  8
3
100
AcDbLine
 10
-110.546019464768
 20
12.0
 30
0.0
 11
-110.546019464768
 21
20.0
 31
0.0
  0
TEXT
  5
BF4
330
B9E
100
AcDbEntity
  8
1
100
AcDbText
 10
-109.6177520618648
 20
17.25
 30
0.0
 40
2.0
  1
Cor:
 41
0.8
  7
SANINDUSA
 11
-109.6177520618648
 21
18.25
 31
0.0
100
AcDbText
 73
     2
  0
LINE
  5
BF5
330
B9E
100
AcDbEntity
  8
leg fin
100
AcDbLine
 10
-91.42857142857156
 20
20.0
 30
0.0
 11
-91.42857142857156
 21
28.5
 31
0.0
  0
LINE
  5
BF6
330
B9E
100
AcDbEntity
  8
leg fin
100
AcDbLine
 10
-104.2857142857142
 20
20.0
 30
0.0
 11
-104.2857142857142
 21
28.5
 31
0.0
  0
LINE
  5
BF7
330
B9E
100
AcDbEntity
  8
leg fin
100
AcDbLine
 10
-117.1428571428573
 20
20.0
 30
0.0
 11
-117.1428571428573
 21
28.5
 31
0.0
  0
POINT
  5
BF8
330
B9E
100
AcDbEntity
  8
SANINDUSA
100
AcDbPoint
 10
-117.1428571428573
 20
28.5
 30
0.0
  0
POINT
  5
BF9
330
B9E
100
AcDbEntity
  8
SANINDUSA
100
AcDbPoint
 10
-104.2857142857142
 20
28.5
 30
0.0
  0
POINT
  5
BFA
330
B9E
100
AcDbEntity
  8
SANINDUSA
100
AcDbPoint
 10
-91.42857142857156
 20
28.5
 30
0.0
  0
TEXT
  5
BFB
330
B9E
100
AcDbEntity
  8
1
100
AcDbText
 10
-116.200160604496
 20
26.43288406845113
 30
0.0
 40
1.5
  1
Nº Seq.:
 41
0.8
  7
SANINDUSA
 11
-116.200160604496
 21
27.18288406845113
 31
0.0
100
AcDbText
 73
     2
  0
TEXT
  5
BFC
330
B9E
100
AcDbEntity
  8
1
100
AcDbText
 10
-103.2106584078738
 20
26.43288406845113
 30
0.0
 40
1.5
  1
Tipo:
 41
0.8
  7
SANINDUSA
 11
-103.2106584078738
 21
27.18288406845113
 31
0.0
100
AcDbText
 73
     2
  0
TEXT
  5
BFD
330
B9E
100
AcDbEntity
  8
1
100
AcDbText
 10
-90.22114672289353
 20
26.43288406845113
 30
0.0
 40
1.5
  1
Prod.:
 41
0.8
  7
SANINDUSA
 11
-90.22114672289353
 21
27.18288406845113
 31
0.0
100
AcDbText
 73
     2
  0
TEXT
  5
BFE
330
B9E
100
AcDbEntity
  8
1
100
AcDbText
 10
-64.77320576346574
 20
26.43288406845113
 30
0.0
 40
1.5
  1
Rev.:
 41
0.8
  7
SANINDUSA
 11
-64.77320576346574
 21
27.18288406845113
 31
0.0
100
AcDbText
 73
     2
  0
LINE
  5
BFF
330
B9E
100
AcDbEntity
  8
leg fin
100
AcDbLine
 10
-52.85714285714266
 20
20.0
 30
0.0
 11
-52.85714285714266
 21
28.5
 31
0.0
  0
LINE
  5
C00
330
B9E
100
AcDbEntity
  8
leg fin
100
AcDbLine
 10
-65.71428571428578
 20
20.0
 30
0.0
 11
-65.71428571428578
 21
28.5
 31
0.0
  0
LINE
  5
C01
330
B9E
100
AcDbEntity
  8
leg fin
100
AcDbLine
 10
-78.57142857142844
 20
20.0
 30
0.0
 11
-78.57142857142844
 21
28.5
 31
0.0
  0
POINT
  5
C02
330
B9E
100
AcDbEntity
  8
SANINDUSA
100
AcDbPoint
 10
-78.57142857142844
 20
28.5
 30
0.0
  0
POINT
  5
C03
330
B9E
100
AcDbEntity
  8
SANINDUSA
100
AcDbPoint
 10
-65.71428571428578
 20
28.5
 30
0.0
  0
POINT
  5
C04
330
B9E
100
AcDbEntity
  8
SANINDUSA
100
AcDbPoint
 10
-52.85714285714266
 20
28.5
 30
0.0
  0
TEXT
  5
C05
330
B9E
100
AcDbEntity
  8
1
100
AcDbText
 10
-77.61097961686573
 20
26.43288406845113
 30
0.0
 40
1.5
  1
Peça:
 41
0.8
  7
SANINDUSA
 11
-77.61097961686573
 21
27.18288406845113
 31
0.0
100
AcDbText
 73
     2
  0
TEXT
  5
C06
330
B9E
100
AcDbEntity
  8
1
100
AcDbText
 10
-52.06538060077036
 20
26.43288406845113
 30
0.0
 40
1.5
  1
Alt.:
 41
0.8
  7
SANINDUSA
 11
-52.06538060077036
 21
27.18288406845113
 31
0.0
100
AcDbText
 73
     2
  0
LINE
  5
C07
330
B9E
100
AcDbEntity
  8
3
100
AcDbLine
 10
0.0
 20
12.0
 30
0.0
 11
-40.0
 21
12.0
 31
0.0
  0
LINE
  5
C08
330
B9E
100
AcDbEntity
  8
3
100
AcDbLine
 10
-40.0
 20
32.5
 30
0.0
 11
0.0
 21
32.5
 31
0.0
  0
TEXT
  5
C09
330
B9E
100
AcDbEntity
  8
1
100
AcDbText
 10
-19.0
 20
29.75
 30
0.0
 40
2.0
  1
Folha:
 41
0.8
  7
SANINDUSA
 11
-19.0
 21
30.75
 31
0.0
100
AcDbText
 73
     2
  0
LINE
  5
C0A
330
B9E
100
AcDbEntity
  8
3
100
AcDbLine
 10
-20.0
 20
32.5
 30
0.0
 11
-20.0
 21
20.0
 31
0.0
  0
TEXT
  5
C0B
330
B9E
100
AcDbEntity
  8
1
100
AcDbText
 10
-39.0
 20
29.75
 30
0.0
 40
2.0
  1
Escala:
 41
0.8
  7
SANINDUSA
 11
-39.0
 21
30.75
 31
0.0
100
AcDbText
 73
     2
  0
TEXT
  5
C0C
330
B9E
100
AcDbEntity
  8
1
100
AcDbText
 10
-39.0
 20
17.25
 30
0.0
 40
2.0
  1
Substitui:
 41
0.8
  7
SANINDUSA
 11
-39.0
 21
18.25
 31
0.0
100
AcDbText
 73
     2
  0
LWPOLYLINE
  5
C0D
102
{ACAD_REACTORS
330
BEC
102
}
330
B9E
100
AcDbEntity
  8
9
100
AcDbPolyline
 90
        6
 70
     1
 43
0.0
 10
-2.638748516194482
 20
57.02796337120571
 10
-2.638748516194482
 20
55.50786840766477
 10
-5.21497371544865
 20
55.507868407665
 42
-0.4142135623730898
 10
-5.614973715448741
 20
55.90786840766487
 10
-5.614973715448741
 20
56.62796337120562
 42
-0.4142135623731576
 10
-5.21497371544865
 20
57.02796337120571
  0
LINE
  5
C0E
330
B9E
100
AcDbEntity
  8
3
100
AcDbLine
 10
-40.0
 20
50.0
 30
0.0
 11
0.0
 21
50.0
 31
0.0
  0
ATTDEF
  5
C0F
330
B9E
100
AcDbEntity
  8
1
100
AcDbText
 10
-31.30691739422431
 20
40.25
 30
0.0
 40
2.0
  1
XXXXXXXXXXXXXXX
 41
0.8
  7
SANINDUSA
 72
     4
 11
-20.0
 21
41.25
 31
0.0
100
AcDbAttributeDefinition
  3
Observações:
  2
OBS
 70
     0
  0
TEXT
  5
C10
330
B9E
100
AcDbEntity
  8
1
100
AcDbText
 10
-39.0
 20
47.25
 30
0.0
 40
2.0
  1
Observações:
 41
0.8
  7
SANINDUSA
 11
-39.0
 21
48.25
 31
0.0
100
AcDbText
 73
     2
  0
LWPOLYLINE
  5
C11
102
{ACAD_REACTORS
330
BEC
102
}
330
B9E
100
AcDbEntity
  8
9
100
AcDbPolyline
 90
        6
 70
     1
 43
0.0
 10
-29.98468712904878
 20
57.02796337120571
 10
-29.98468712904878
 20
55.507868407665
 10
-32.57692046803459
 20
55.507868407665
 42
-0.4142135623731731
 10
-32.97692046803468
 20
55.90786840766487
 10
-32.97692046803468
 20
56.62796337120562
 42
-0.4142135623731576
 10
-32.57692046803459
 20
57.02796337120571
  0
LWPOLYLINE
  5
C12
102
{ACAD_REACTORS
330
BEC
102
}
330
B9E
100
AcDbEntity
  8
9
100
AcDbPolyline
 90
        4
 70
     1
 43
0.0
 10
-24.19231812786165
 20
59.87619128370352
 10
-24.57637781922995
 20
59.87619128370352
 10
-24.57637781922995
 20
59.28412752246913
 10
-24.19231812786165
 20
59.28412752246913
  0
ENDBLK
  5
C14
330
B9E
100
AcDbEntity
  8
0
100
AcDbBlockEnd
  0
ENDSEC
  0
SECTION
  2
ENTITIES
  0
SPLINE
  5
15A0
330
1F
100
AcDbEntity
  8
SANINDUSA
100
AcDbSpline
210
0.0
220
0.0
230
1.0
 70
     8
 71
     3
 72
    12
 73
     8
 74
     0
 42
0.00000001
 43
0.0000000001
 40
0.0
 40
0.0
 40
0.0
 40
0.0
 40
0.0014216015721834
 40
0.0492669041847374
 40
0.118173781052064
 40
0.5211607199609344
 40
1.0
 40
1.0
 40
1.0
 40
1.0
 10
4251.301596202243
 20
2289.101219109149
 30
0.0
 10
4251.301599716668
 20
2289.101312558519
 30
0.0
 10
4251.301721512308
 20
2289.104551132012
 30
0.0
 10
4251.301775520466
 20
2289.112326047711
 30
0.0
 10
4251.302305398279
 20
2289.1465097414
 30
0.0
 10
4251.303125066689
 20
2289.209046592754
 30
0.0
 10
4251.30384346322
 20
2289.267049747342
 30
0.0
 10
4251.304233558763
 20
2289.29854596302
 30
0.0
  0
SPLINE
  5
15A1
330
1F
100
AcDbEntity
  8
SANINDUSA
100
AcDbSpline
210
0.0
220
0.0
230
1.0
 70
     8
 71
     3
 72
    11
 73
     7
 74
     0
 42
0.00000001
 43
0.0000000001
 40
0.0
 40
0.0
 40
0.0
 40
0.0
 40
0.3020288181388513
 40
0.8415203986136978
 40
0.9478772150900168
 40
1.0
 40
1.0
 40
1.0
 40
1.0
 10
4250.941871799816
 20
2289.298345959634
 30
0.0
 10
4250.942095935105
 20
2289.278499667072
 30
0.0
 10
4250.94272042657
 20
2289.223203420405
 30
0.0
 10
4250.94366823433
 20
2289.160921790263
 30
0.0
 10
4250.944218662041
 20
2289.115058325769
 30
0.0
 10
4250.94441760403
 20
2289.104645866591
 30
0.0
 10
4250.9444830346
 20
2289.101221284719
 30
0.0
  0
SPLINE
  5
15A2
330
1F
100
AcDbEntity
  8
SANINDUSA
100
AcDbSpline
210
0.0
220
0.0
230
1.0
 70
     8
 71
     3
 72
    82
 73
    78
 74
     0
 42
0.00000001
 43
0.0000000001
 40
0.0
 40
0.0
 40
0.0
 40
0.0
 40
0.0103483362639416
 40
0.0245453443654824
 40
0.0375068265148746
 40
0.0497596873453437
 40
0.0625507473030114
 40
0.0758310399469847
 40
0.0891903816236407
 40
0.1026233449580089
 40
0.1161208653822862
 40
0.12967244345494
 40
0.1432662604502344
 40
0.1568895198975288
 40
0.1705286294371407
 40
0.1841671374697039
 40
0.1977889206030263
 40
0.2113804903691935
 40
0.2249291602828745
 40
0.2384234201285145
 40
0.251853180920661
 40
0.2652099695838197
 40
0.2784832490769078
 40
0.2917016781393004
 40
0.3050707239927636
 40
0.3184986596347215
 40
0.3319639042579519
 40
0.3454437992800904
 40
0.3589086337945284
 40
0.3723347755281985
 40
0.3857008457567501
 40
0.3989965424103277
 40
0.4122791743833333
 40
0.4256344987280685
 40
0.4390451335985521
 40
0.4524855015383071
 40
0.4659261176089843
 40
0.4793348081069972
 40
0.4926860412012361
 40
0.5059558447288469
 40
0.5191946718775208
 40
0.5325067474950646
 40
0.5458752607817595
 40
0.5592839542347386
 40
0.5727159580769474
 40
0.5861531286770313
 40
0.5995747055977542
 40
0.6129652807948406
 40
0.6262677384809523
 40
0.6396387630057492
 40
0.6530072445719057
 40
0.6663611624324296
 40
0.679717069348135
 40
0.6930876000106009
 40
0.7064874438452212
 40
0.7199327641516727
 40
0.7334439867424796
 40
0.7468373722853653
 40
0.7601582132502185
 40
0.7735258171255904
 40
0.786937598061491
 40
0.8003902868773719
 40
0.813879338962695
 40
0.8273993356458626
 40
0.8409441617571436
 40
0.8545069633682814
 40
0.8680806671821345
 40
0.8816564483192246
 40
0.8952260764754193
 40
0.9087825794459421
 40
0.9223197471635543
 40
0.9358319239203783
 40
0.949314497378935
 40
0.9612501223853108
 40
0.9737059452004341
 40
0.9865875934113576
 40
1.0
 40
1.0
 40
1.0
 40
1.0
 10
4250.944370590437
 20
2289.101214638801
 30
0.0
 10
4250.944434923478
 20
2289.099285442381
 30
0.0
 10
4250.944587515795
 20
2289.094709557984
 30
0.0
 10
4250.945079460204
 20
2289.08772917414
 30
0.0
 10
4250.945826583006
 20
2289.080414870755
 30
0.0
 10
4250.946835065188
 20
2289.073396041351
 30
0.0
 10
4250.948149825044
 20
2289.066367700995
 30
0.0
 10
4250.949796366659
 20
2289.059197610546
 30
0.0
 10
4250.951773744596
 20
2289.051987316531
 30
0.0
 10
4250.954061381866
 20
2289.044826864735
 30
0.0
 10
4250.956656308885
 20
2289.037733755865
 30
0.0
 10
4250.959553866192
 20
2289.030726326809
 30
0.0
 10
4250.96274825078
 20
2289.023823277278
 30
0.0
 10
4250.966232387408
 20
2289.01704347715
 30
0.0
 10
4250.969997810768
 20
2289.010406176525
 30
0.0
 10
4250.974034559401
 20
2289.003930625919
 30
0.0
 10
4250.978331486233
 20
2288.997635434467
 30
0.0
 10
4250.982876819928
 20
2288.991538057589
 30
0.0
 10
4250.987658144077
 20
2288.985654524768
 30
0.0
 10
4250.992662519128
 20
2288.979999716366
 30
0.0
 10
4250.997876782278
 20
2288.974587421336
 30
0.0
 10
4251.003286592527
 20
2288.969430067711
 30
0.0
 10
4251.008883795541
 20
2288.964536427772
 30
0.0
 10
4251.014684530242
 20
2288.959882387173
 30
0.0
 10
4251.02069752118
 20
2288.955457146434
 30
0.0
 10
4251.026928422507
 20
2288.951261390615
 30
0.0
 10
4251.033346754214
 20
2288.947318715363
 30
0.0
 10
4251.039930465103
 20
2288.943644708806
 30
0.0
 10
4251.04665599271
 20
2288.940253370224
 30
0.0
 10
4251.053499202348
 20
2288.937157381164
 30
0.0
 10
4251.060438185789
 20
2288.93436581188
 30
0.0
 10
4251.067465102834
 20
2288.931882890295
 30
0.0
 10
4251.074588755783
 20
2288.92969997477
 30
0.0
 10
4251.081818404655
 20
2288.927812225149
 30
0.0
 10
4251.089149500013
 20
2288.926222543764
 30
0.0
 10
4251.09655642252
 20
2288.924938548504
 30
0.0
 10
4251.104010381735
 20
2288.923966730324
 30
0.0
 10
4251.111482134385
 20
2288.923311475761
 30
0.0
 10
4251.118943160025
 20
2288.922975064069
 30
0.0
 10
4251.126380071045
 20
2288.92295863933
 30
0.0
 10
4251.133803566485
 20
2288.923258852068
 30
0.0
 10
4251.141226173618
 20
2288.923872836877
 30
0.0
 10
4251.148647846238
 20
2288.924802345963
 30
0.0
 10
4251.156045935651
 20
2288.926046783552
 30
0.0
 10
4251.163397755923
 20
2288.927603557824
 30
0.0
 10
4251.170679796747
 20
2288.929469287383
 30
0.0
 10
4251.177869269183
 20
2288.931638308218
 30
0.0
 10
4251.184936481673
 20
2288.934102284374
 30
0.0
 10
4251.191884541176
 20
2288.936858842685
 30
0.0
 10
4251.198708334579
 20
2288.939900011943
 30
0.0
 10
4251.205406538212
 20
2288.943230344883
 30
0.0
 10
4251.21195583928
 20
2288.946838862716
 30
0.0
 10
4251.218347295228
 20
2288.950720848764
 30
0.0
 10
4251.224576538894
 20
2288.95487356501
 30
0.0
 10
4251.230639111709
 20
2288.959294409159
 30
0.0
 10
4251.236531372882
 20
2288.963982001534
 30
0.0
 10
4251.242223205227
 20
2288.968909313149
 30
0.0
 10
4251.247682403315
 20
2288.974059450965
 30
0.0
 10
4251.252900996597
 20
2288.979415782302
 30
0.0
 10
4251.257893216482
 20
2288.984988313013
 30
0.0
 10
4251.262664108011
 20
2288.990783350857
 30
0.0
 10
4251.267203077389
 20
2288.996790197421
 30
0.0
 10
4251.271499757678
 20
2289.002997235541
 30
0.0
 10
4251.275544000731
 20
2289.009391973577
 30
0.0
 10
4251.279326039798
 20
2289.015961079044
 30
0.0
 10
4251.282836631241
 20
2289.022690473441
 30
0.0
 10
4251.286066966356
 20
2289.029565188137
 30
0.0
 10
4251.289009000671
 20
2289.036569517293
 30
0.0
 10
4251.291655533043
 20
2289.043687342851
 30
0.0
 10
4251.294000320109
 20
2289.050902626288
 30
0.0
 10
4251.296038253051
 20
2289.058199395688
 30
0.0
 10
4251.297764686
 20
2289.065561931275
 30
0.0
 10
4251.299124771395
 20
2289.072696834129
 30
0.0
 10
4251.300166148234
 20
2289.079686047765
 30
0.0
 10
4251.300880529983
 20
2289.086603309842
 30
0.0
 10
4251.301372630124
 20
2289.093815858678
 30
0.0
 10
4251.301525941527
 20
2289.098718155355
 30
0.0
 10
4251.301604144562
 20
2289.101218781323
 30
0.0
  0
SPLINE
  5
15A5
330
1F
100
AcDbEntity
  8
SANINDUSA
100
AcDbSpline
210
0.0
220
0.0
230
1.0
 70
    24
 71
     3
 72
    27
 73
    23
 74
     0
 42
0.00000001
 43
0.0000000001
 40
0.0
 40
0.0
 40
0.0
 40
0.0
 40
0.1250000000000003
 40
0.1250000000000003
 40
0.1875000000000003
 40
0.1875000000000003
 40
0.2500000000000003
 40
0.3125000000000003
 40
0.3125000000000003
 40
0.3750000000000003
 40
0.3750000000000003
 40
0.5000000000000002
 40
0.5000000000000002
 40
0.6250000000000002
 40
0.6250000000000002
 40
0.7500000000000001
 40
0.7500000000000001
 40
0.8125000000000001
 40
0.8125000000000001
 40
0.8750000000000001
 40
0.8750000000000001
 40
1.0
 40
1.0
 40
1.0
 40
1.0
 10
4251.303471332479
 20
2289.432626507134
 30
0.0
 10
4251.303477021886
 20
2289.432626507134
 30
0.0
 10
4251.303430134694
 20
2289.432626507134
 30
0.0
 10
4251.303281725466
 20
2289.432626507134
 30
0.0
 10
4251.30321897917
 20
2289.432626507134
 30
0.0
 10
4251.303069727359
 20
2289.432626507134
 30
0.0
 10
4251.302896317943
 20
2289.432626507134
 30
0.0
 10
4251.302675353933
 20
2289.432626507134
 30
0.0
 10
4251.302430295406
 20
2289.432626507134
 30
0.0
 10
4251.302294924347
 20
2289.432626507134
 30
0.0
 10
4251.301857243229
 20
2289.432626507134
 30
0.0
 10
4251.301526126473
 20
2289.432626507134
 30
0.0
 10
4251.300787332291
 20
2289.432626507134
 30
0.0
 10
4251.300374569324
 20
2289.432626507134
 30
0.0
 10
4251.299501368001
 20
2289.432626507134
 30
0.0
 10
4251.299039749002
 20
2289.432626507134
 30
0.0
 10
4251.298309520657
 20
2289.432626507134
 30
0.0
 10
4251.298058386379
 20
2289.432626507134
 30
0.0
 10
4251.297552812363
 20
2289.432626507134
 30
0.0
 10
4251.297297814402
 20
2289.432626507134
 30
0.0
 10
4251.296526339536
 20
2289.432626507134
 30
0.0
 10
4251.296003446155
 20
2289.432626507134
 30
0.0
 10
4251.295471611193
 20
2289.432626507134
 30
0.0
  0
ARC
  5
15A6
330
1F
100
AcDbEntity
  8
SANINDUSA
100
AcDbCircle
 10
4251.303471278583
 20
2289.430626565877
 30
0.0
 40
0.0019999412583314
100
AcDbArc
 50
359.6150625938664
 51
89.99839620413146
  0
SPLINE
  5
15A7
330
1F
100
AcDbEntity
  8
SANINDUSA
100
AcDbSpline
210
0.0
220
0.0
230
1.0
 70
     8
 71
     3
 72
     9
 73
     5
 74
     0
 42
0.00000001
 43
0.0000000001
 40
0.0
 40
0.0
 40
0.0
 40
0.0
 40
0.3976597769094358
 40
1.0
 40
1.0
 40
1.0
 40
1.0
 10
4251.304211624254
 20
2289.298547393531
 30
0.0
 10
4251.304418624796
 20
2289.316052666707
 30
0.0
 10
4251.304939171641
 20
2289.360073395461
 30
0.0
 10
4251.305271187936
 20
2289.404096339555
 30
0.0
 10
4251.305471174706
 20
2289.430613129522
 30
0.0
  0
SPLINE
  5
15A9
330
1F
100
AcDbEntity
  8
SANINDUSA
100
AcDbSpline
210
0.0
220
0.0
230
1.0
 70
     8
 71
     3
 72
     9
 73
     5
 74
     0
 42
0.00000001
 43
0.0000000001
 40
0.0
 40
0.0
 40
0.0
 40
0.0
 40
0.398571765486187
 40
1.0
 40
1.0
 40
1.0
 40
1.0
 10
4250.94186966895
 20
2289.298347136826
 30
0.0
 10
4250.941661857893
 20
2289.315919161526
 30
0.0
 10
4250.941140468587
 20
2289.360006641427
 30
0.0
 10
4250.940807890358
 20
2289.404096339968
 30
0.0
 10
4250.940607868422
 20
2289.430613129522
 30
0.0
  0
SPLINE
  5
15AC
330
1F
100
AcDbEntity
  8
SANINDUSA
100
AcDbSpline
210
0.0
220
0.0
230
1.0
 70
    24
 71
     3
 72
    27
 73
    23
 74
     0
 42
0.00000001
 43
0.0000000001
 40
0.0
 40
0.0
 40
0.0
 40
0.0
 40
0.1250000000000003
 40
0.1250000000000003
 40
0.1875000000000003
 40
0.1875000000000003
 40
0.2500000000000003
 40
0.3125000000000003
 40
0.3125000000000003
 40
0.3750000000000003
 40
0.3750000000000003
 40
0.5000000000000002
 40
0.5000000000000002
 40
0.6250000000000002
 40
0.6250000000000002
 40
0.7500000000000001
 40
0.7500000000000001
 40
0.8125000000000001
 40
0.8125000000000001
 40
0.8750000000000001
 40
0.8750000000000001
 40
1.0
 40
1.0
 40
1.0
 40
1.0
 10
4250.942607710648
 20
2289.432626507134
 30
0.0
 10
4250.942602021241
 20
2289.432626507134
 30
0.0
 10
4250.942648908433
 20
2289.432626507134
 30
0.0
 10
4250.942797317661
 20
2289.432626507134
 30
0.0
 10
4250.942860063957
 20
2289.432626507134
 30
0.0
 10
4250.943009315768
 20
2289.432626507134
 30
0.0
 10
4250.943182725184
 20
2289.432626507134
 30
0.0
 10
4250.943403689194
 20
2289.432626507134
 30
0.0
 10
4250.943648747722
 20
2289.432626507134
 30
0.0
 10
4250.94378411878
 20
2289.432626507134
 30
0.0
 10
4250.944221799898
 20
2289.432626507134
 30
0.0
 10
4250.944552916654
 20
2289.432626507134
 30
0.0
 10
4250.945291710837
 20
2289.432626507134
 30
0.0
 10
4250.945704473803
 20
2289.432626507134
 30
0.0
 10
4250.946577675128
 20
2289.432626507134
 30
0.0
 10
4250.947039294126
 20
2289.432626507134
 30
0.0
 10
4250.94776952247
 20
2289.432626507134
 30
0.0
 10
4250.948020656749
 20
2289.432626507134
 30
0.0
 10
4250.948526230766
 20
2289.432626507134
 30
0.0
 10
4250.948781228726
 20
2289.432626507134
 30
0.0
 10
4250.949552703591
 20
2289.432626507134
 30
0.0
 10
4250.950075596973
 20
2289.432626507134
 30
0.0
 10
4250.950607431934
 20
2289.432626507134
 30
0.0
  0
ARC
  5
15AE
330
1F
100
AcDbEntity
  8
SANINDUSA
100
AcDbCircle
 10
4250.942607764545
 20
2289.430626565877
 30
0.0
 40
0.0019999412583314
100
AcDbArc
 50
90.00160379586855
 51
180.3849374061336
  0
SPLINE
  5
15AF
330
1F
100
AcDbEntity
  8
SANINDUSA
100
AcDbSpline
210
0.0
220
0.0
230
1.0
 70
     8
 71
     3
 72
    26
 73
    22
 74
     0
 42
0.00000001
 43
0.0000000001
 40
0.0
 40
0.0
 40
0.0
 40
0.0
 40
0.0538389321648842
 40
0.1078701417947774
 40
0.1619014256583688
 40
0.2157404660199445
 40
0.2696093593832924
 40
0.323670839743834
 40
0.377733203227368
 40
0.4316031031756335
 40
0.4854664975315528
 40
0.539522677701058
 40
0.5935786532775459
 40
0.6474415393733431
 40
0.7012481898196445
 40
0.7552463248809295
 40
0.8092439895752468
 40
0.8630499108970983
 40
0.9029192764832162
 40
0.9427890181173284
 40
0.9999999999999998
 40
0.9999999999999998
 40
0.9999999999999998
 40
0.9999999999999998
 10
4251.251875318874
 20
2289.101659587474
 30
0.0
 10
4251.251757783106
 20
2289.09804600944
 30
0.0
 10
4251.251522291808
 20
2289.090805948033
 30
0.0
 10
4251.250008984967
 20
2289.080026426473
 30
0.0
 10
4251.247673348339
 20
2289.069404829139
 30
0.0
 10
4251.244441786891
 20
2289.059027072127
 30
0.0
 10
4251.240329973052
 20
2289.048964919953
 30
0.0
 10
4251.235380398095
 20
2289.039270748375
 30
0.0
 10
4251.229643106591
 20
2289.030021115804
 30
0.0
 10
4251.223159300582
 20
2289.021294190578
 30
0.0
 10
4251.215947325955
 20
2289.013159204086
 30
0.0
 10
4251.208069780272
 20
2289.005649760164
 30
0.0
 10
4251.199595341617
 20
2288.998821081764
 30
0.0
 10
4251.190590664677
 20
2288.992737168023
 30
0.0
 10
4251.18109825967
 20
2288.987454684251
 30
0.0
 10
4251.171189946066
 20
2288.982980239401
 30
0.0
 10
4251.160945005724
 20
2288.979343727936
 30
0.0
 10
4251.151347970718
 20
2288.976816349107
 30
0.0
 10
4251.142528543156
 20
2288.975198140588
 30
0.0
 10
4251.133398569463
 20
2288.974054182891
 30
0.0
 10
4251.126880630846
 20
2288.973889334318
 30
0.0
 10
4251.123039521564
 20
2288.973792186828
 30
0.0
  0
SPLINE
  5
15B5
330
1F
100
AcDbEntity
  8
SANINDUSA
100
AcDbSpline
210
0.0
220
0.0
230
1.0
 70
     8
 71
     3
 72
    26
 73
    22
 74
     0
 42
0.00000001
 43
0.0000000001
 40
0.0
 40
0.0
 40
0.0
 40
0.0
 40
0.0538389321648842
 40
0.1078701417947774
 40
0.1619014256583688
 40
0.2157404660199445
 40
0.2696093593832924
 40
0.323670839743834
 40
0.377733203227368
 40
0.4316031031756335
 40
0.4854664975315528
 40
0.539522677701058
 40
0.5935786532775459
 40
0.6474415393733431
 40
0.7012481898196445
 40
0.7552463248809295
 40
0.8092439895752468
 40
0.8630499108970983
 40
0.9029192764832162
 40
0.9427890181173284
 40
0.9999999999999998
 40
0.9999999999999998
 40
0.9999999999999998
 40
0.9999999999999998
 10
4250.994203724254
 20
2289.101659587474
 30
0.0
 10
4250.994321260022
 20
2289.09804600944
 30
0.0
 10
4250.994556751318
 20
2289.090805948033
 30
0.0
 10
4250.996070058161
 20
2289.080026426473
 30
0.0
 10
4250.998405694788
 20
2289.069404829139
 30
0.0
 10
4251.001637256236
 20
2289.059027072127
 30
0.0
 10
4251.005749070076
 20
2289.048964919953
 30
0.0
 10
4251.010698645033
 20
2289.039270748375
 30
0.0
 10
4251.016435936536
 20
2289.030021115804
 30
0.0
 10
4251.022919742545
 20
2289.021294190578
 30
0.0
 10
4251.030131717172
 20
2289.013159204086
 30
0.0
 10
4251.038009262855
 20
2289.005649760164
 30
0.0
 10
4251.04648370151
 20
2288.998821081764
 30
0.0
 10
4251.055488378451
 20
2288.992737168023
 30
0.0
 10
4251.064980783458
 20
2288.987454684251
 30
0.0
 10
4251.074889097061
 20
2288.982980239401
 30
0.0
 10
4251.085134037403
 20
2288.979343727936
 30
0.0
 10
4251.09473107241
 20
2288.976816349107
 30
0.0
 10
4251.103550499972
 20
2288.975198140588
 30
0.0
 10
4251.112680473664
 20
2288.974054182891
 30
0.0
 10
4251.119198412282
 20
2288.973889334318
 30
0.0
 10
4251.123039521564
 20
2288.973792186828
 30
0.0
  0
CIRCLE
  5
15D0
330
1F
100
AcDbEntity
  8
SANINDUSA
100
AcDbCircle
 10
4251.199539521564
 20
2289.352626507134
 30
0.0
 40
0.0075
  0
CIRCLE
  5
15D2
330
1F
100
AcDbEntity
  8
SANINDUSA
100
AcDbCircle
 10
4251.046539521563
 20
2289.352626507134
 30
0.0
 40
0.0075
  0
LINE
  5
15D6
330
1F
100
AcDbEntity
  8
SANINDUSA
100
AcDbLine
 10
4250.950607426752
 20
2289.432626507134
 30
0.0
 11
4251.295471616376
 21
2289.432626507134
 31
0.0
  0
ARC
  5
15D9
330
1F
100
AcDbEntity
  8
SANINDUSA
100
AcDbCircle
 10
4251.123039521564
 20
2289.172097292659
 30
0.0
 40
0.1293635494997193
100
AcDbArc
 50
359.5677215579374
 51
180.4322784420626
  0
LINE
  5
15DA
330
1F
100
AcDbEntity
  8
SANINDUSA
100
AcDbLine
 10
4251.252399392713
 20
2289.171121290774
 30
0.0
 11
4251.251875318874
 21
2289.101659587474
 31
0.0
  0
LINE
  5
15DB
330
1F
100
AcDbEntity
  8
SANINDUSA
100
AcDbLine
 10
4250.993679650416
 20
2289.171121290774
 30
0.0
 11
4250.994203724254
 21
2289.101659587474
 31
0.0
  0
SPLINE
  5
15FF
330
1F
100
AcDbEntity
  8
SANINDUSA
100
AcDbSpline
210
0.0
220
0.0
230
1.0
 70
     8
 71
     3
 72
    26
 73
    22
 74
     0
 42
0.00000001
 43
0.0000000001
 40
0.0
 40
0.0
 40
0.0
 40
0.0
 40
0.2499999999999958
 40
0.2499999999999958
 40
0.3749999999999932
 40
0.3749999999999932
 40
0.4999999999999904
 40
0.4999999999999904
 40
0.531249999999991
 40
0.531249999999991
 40
0.5624999999999915
 40
0.5624999999999915
 40
0.6249999999999922
 40
0.6249999999999922
 40
0.749999999999994
 40
0.749999999999994
 40
0.812499999999996
 40
0.812499999999996
 40
0.874999999999998
 40
0.874999999999998
 40
1.0
 40
1.0
 40
1.0
 40
1.0
 10
4251.172531729941
 20
2289.198239554792
 30
0.0
 10
4251.172476431622
 20
2289.192137165636
 30
0.0
 10
4251.172434118582
 20
2289.186017795913
 30
0.0
 10
4251.172389639844
 20
2289.176813907452
 30
0.0
 10
4251.172377990384
 20
2289.17374179042
 30
0.0
 10
4251.172361326342
 20
2289.167588880069
 30
0.0
 10
4251.172356297085
 20
2289.164508105942
 30
0.0
 10
4251.172354689479
 20
2289.160651019703
 30
0.0
 10
4251.172354653223
 20
2289.15987922942
 30
0.0
 10
4251.172354807825
 20
2289.158335351863
 30
0.0
 10
4251.172354979675
 20
2289.157563289445
 30
0.0
 10
4251.172355771641
 20
2289.155246740727
 30
0.0
 10
4251.172356670262
 20
2289.153701890232
 30
0.0
 10
4251.17236042117
 20
2289.149065959089
 30
0.0
 10
4251.172364330285
 20
2289.145973496451
 30
0.0
 10
4251.172371851382
 20
2289.141332635114
 30
0.0
 10
4251.172374632957
 20
2289.13978532232
 30
0.0
 10
4251.172380629224
 20
2289.13669013036
 30
0.0
 10
4251.172383743351
 20
2289.135142382697
 30
0.0
 10
4251.172394373514
 20
2289.130497455702
 30
0.0
 10
4251.172403274074
 20
2289.127398465861
 30
0.0
 10
4251.17241396046
 20
2289.124297140735
 30
0.0
  0
SPLINE
  5
1601
330
1F
100
AcDbEntity
  8
SANINDUSA
100
AcDbSpline
210
0.0
220
0.0
230
1.0
 70
     8
 71
     3
 72
    26
 73
    22
 74
     0
 42
0.00000001
 43
0.0000000001
 40
0.0
 40
0.0
 40
0.0
 40
0.0
 40
0.2499999999999958
 40
0.2499999999999958
 40
0.3749999999999932
 40
0.3749999999999932
 40
0.4999999999999904
 40
0.4999999999999904
 40
0.531249999999991
 40
0.531249999999991
 40
0.5624999999999915
 40
0.5624999999999915
 40
0.6249999999999922
 40
0.6249999999999922
 40
0.749999999999994
 40
0.749999999999994
 40
0.812499999999996
 40
0.812499999999996
 40
0.874999999999998
 40
0.874999999999998
 40
1.0
 40
1.0
 40
1.0
 40
1.0
 10
4251.073547313186
 20
2289.198239554792
 30
0.0
 10
4251.073602611505
 20
2289.192137165636
 30
0.0
 10
4251.073644924544
 20
2289.186017795913
 30
0.0
 10
4251.073689403283
 20
2289.176813907452
 30
0.0
 10
4251.073701052743
 20
2289.17374179042
 30
0.0
 10
4251.073717716786
 20
2289.167588880069
 30
0.0
 10
4251.073722746042
 20
2289.164508105942
 30
0.0
 10
4251.073724353648
 20
2289.160651019703
 30
0.0
 10
4251.073724389903
 20
2289.15987922942
 30
0.0
 10
4251.073724235302
 20
2289.158335351863
 30
0.0
 10
4251.073724063452
 20
2289.157563289445
 30
0.0
 10
4251.073723271487
 20
2289.155246740727
 30
0.0
 10
4251.073722372865
 20
2289.153701890232
 30
0.0
 10
4251.073718621958
 20
2289.149065959089
 30
0.0
 10
4251.073714712843
 20
2289.145973496451
 30
0.0
 10
4251.073707191745
 20
2289.141332635114
 30
0.0
 10
4251.07370441017
 20
2289.13978532232
 30
0.0
 10
4251.073698413903
 20
2289.13669013036
 30
0.0
 10
4251.073695299776
 20
2289.135142382697
 30
0.0
 10
4251.073684669612
 20
2289.130497455702
 30
0.0
 10
4251.073675769053
 20
2289.127398465861
 30
0.0
 10
4251.073665082667
 20
2289.124297140735
 30
0.0
  0
SPLINE
  5
1604
330
1F
100
AcDbEntity
  8
SANINDUSA
100
AcDbSpline
210
0.0
220
0.0
230
1.0
 70
     8
 71
     3
 72
    42
 73
    38
 74
     0
 42
0.00000001
 43
0.0000000001
 40
0.0
 40
0.0
 40
0.0
 40
0.0
 40
0.0624999999999967
 40
0.0624999999999967
 40
0.1249999999999934
 40
0.1249999999999934
 40
0.18749999999999
 40
0.18749999999999
 40
0.218749999999989
 40
0.218749999999989
 40
0.249999999999988
 40
0.249999999999988
 40
0.2812499999999869
 40
0.2812499999999869
 40
0.3124999999999858
 40
0.3124999999999858
 40
0.3437499999999848
 40
0.3437499999999848
 40
0.3749999999999837
 40
0.3749999999999837
 40
0.4374999999999836
 40
0.4374999999999836
 40
0.4687499999999835
 40
0.4687499999999835
 40
0.4999999999999833
 40
0.4999999999999833
 40
0.562499999999985
 40
0.562499999999985
 40
0.6249999999999866
 40
0.6249999999999866
 40
0.6874999999999881
 40
0.6874999999999881
 40
0.7499999999999897
 40
0.7499999999999897
 40
0.8749999999999948
 40
0.8749999999999948
 40
1.0
 40
1.0
 40
1.0
 40
1.0
 10
4251.158558433822
 20
2289.214544590954
 30
0.0
 10
4251.159021082041
 20
2289.214596333023
 30
0.0
 10
4251.15949264302
 20
2289.214624887954
 30
0.0
 10
4251.160459068591
 20
2289.214626322993
 30
0.0
 10
4251.160953852215
 20
2289.214599360182
 30
0.0
 10
4251.161975626278
 20
2289.214473836462
 30
0.0
 10
4251.162496284295
 20
2289.214375760833
 30
0.0
 10
4251.163287427796
 20
2289.214163906601
 30
0.0
 10
4251.163553275381
 20
2289.214082385486
 30
0.0
 10
4251.16409009609
 20
2289.213894281754
 30
0.0
 10
4251.164360477413
 20
2289.213787746619
 30
0.0
 10
4251.164895617272
 20
2289.213551316629
 30
0.0
 10
4251.16516167835
 20
2289.213420993813
 30
0.0
 10
4251.165690641458
 20
2289.213134096795
 30
0.0
 10
4251.165951332334
 20
2289.212978548255
 30
0.0
 10
4251.166456348927
 20
2289.212648762543
 30
0.0
 10
4251.166702050928
 20
2289.212473794597
 30
0.0
 10
4251.167180121262
 20
2289.212104116058
 30
0.0
 10
4251.167413719147
 20
2289.211908272341
 30
0.0
 10
4251.168086125273
 20
2289.211299355881
 30
0.0
 10
4251.168489100066
 20
2289.210873000158
 30
0.0
 10
4251.169040183189
 20
2289.210209170478
 30
0.0
 10
4251.169215488217
 20
2289.209982969852
 30
0.0
 10
4251.169546720699
 20
2289.209527354171
 30
0.0
 10
4251.169702367061
 20
2289.209298476136
 30
0.0
 10
4251.170143499675
 20
2289.20860890471
 30
0.0
 10
4251.170404319924
 20
2289.208143334329
 30
0.0
 10
4251.170867157407
 20
2289.207215222686
 30
0.0
 10
4251.171068899085
 20
2289.206753761762
 30
0.0
 10
4251.171425982537
 20
2289.205833827954
 30
0.0
 10
4251.17158121688
 20
2289.205375368967
 30
0.0
 10
4251.171852893164
 20
2289.20445992081
 30
0.0
 10
4251.171969151264
 20
2289.204003015925
 30
0.0
 10
4251.172264694031
 20
2289.202646555489
 30
0.0
 10
4251.172393097099
 20
2289.201755781119
 30
0.0
 10
4251.172541554325
 20
2289.19998856238
 30
0.0
 10
4251.172561189348
 20
2289.199112260589
 30
0.0
 10
4251.172531729941
 20
2289.198239554792
 30
0.0
  0
SPLINE
  5
1606
330
1F
100
AcDbEntity
  8
SANINDUSA
100
AcDbSpline
210
0.0
220
0.0
230
1.0
 70
     8
 71
     3
 72
    42
 73
    38
 74
     0
 42
0.00000001
 43
0.0000000001
 40
0.0
 40
0.0
 40
0.0
 40
0.0
 40
0.0624999999999975
 40
0.0624999999999975
 40
0.1249999999999949
 40
0.1249999999999949
 40
0.1874999999999924
 40
0.1874999999999924
 40
0.2187499999999917
 40
0.2187499999999917
 40
0.2499999999999911
 40
0.2499999999999911
 40
0.2812499999999904
 40
0.2812499999999904
 40
0.3124999999999898
 40
0.3124999999999898
 40
0.3437499999999892
 40
0.3437499999999892
 40
0.3749999999999885
 40
0.3749999999999885
 40
0.4374999999999886
 40
0.4374999999999886
 40
0.4687499999999884
 40
0.4687499999999884
 40
0.4999999999999883
 40
0.4999999999999883
 40
0.5624999999999897
 40
0.5624999999999897
 40
0.6249999999999912
 40
0.6249999999999912
 40
0.6874999999999928
 40
0.6874999999999928
 40
0.7499999999999942
 40
0.7499999999999942
 40
0.8749999999999969
 40
0.8749999999999969
 40
1.0
 40
1.0
 40
1.0
 40
1.0
 10
4251.087520609305
 20
2289.214544590954
 30
0.0
 10
4251.087057961087
 20
2289.214596333023
 30
0.0
 10
4251.086586400107
 20
2289.214624887954
 30
0.0
 10
4251.085619974537
 20
2289.214626322993
 30
0.0
 10
4251.085125190912
 20
2289.214599360182
 30
0.0
 10
4251.084103416849
 20
2289.214473836462
 30
0.0
 10
4251.083582758832
 20
2289.214375760833
 30
0.0
 10
4251.08279161533
 20
2289.214163906601
 30
0.0
 10
4251.082525767746
 20
2289.214082385486
 30
0.0
 10
4251.081988947038
 20
2289.213894281754
 30
0.0
 10
4251.081718565714
 20
2289.213787746619
 30
0.0
 10
4251.081183425855
 20
2289.213551316629
 30
0.0
 10
4251.080917364777
 20
2289.213420993813
 30
0.0
 10
4251.080388401669
 20
2289.213134096795
 30
0.0
 10
4251.080127710793
 20
2289.212978548255
 30
0.0
 10
4251.0796226942
 20
2289.212648762543
 30
0.0
 10
4251.079376992199
 20
2289.212473794597
 30
0.0
 10
4251.078898921865
 20
2289.212104116058
 30
0.0
 10
4251.078665323981
 20
2289.211908272341
 30
0.0
 10
4251.077992917855
 20
2289.211299355881
 30
0.0
 10
4251.077589943061
 20
2289.210873000158
 30
0.0
 10
4251.077038859939
 20
2289.210209170478
 30
0.0
 10
4251.07686355491
 20
2289.209982969852
 30
0.0
 10
4251.076532322428
 20
2289.209527354171
 30
0.0
 10
4251.076376676066
 20
2289.209298476136
 30
0.0
 10
4251.075935543453
 20
2289.20860890471
 30
0.0
 10
4251.075674723203
 20
2289.208143334329
 30
0.0
 10
4251.075211885721
 20
2289.207215222686
 30
0.0
 10
4251.075010144041
 20
2289.206753761762
 30
0.0
 10
4251.07465306059
 20
2289.205833827954
 30
0.0
 10
4251.074497826247
 20
2289.205375368967
 30
0.0
 10
4251.074226149963
 20
2289.20445992081
 30
0.0
 10
4251.074109891864
 20
2289.204003015925
 30
0.0
 10
4251.073814349096
 20
2289.202646555489
 30
0.0
 10
4251.073685946029
 20
2289.201755781119
 30
0.0
 10
4251.073537488802
 20
2289.19998856238
 30
0.0
 10
4251.07351785378
 20
2289.199112260589
 30
0.0
 10
4251.073547313186
 20
2289.198239554792
 30
0.0
  0
SPLINE
  5
1608
330
1F
100
AcDbEntity
  8
SANINDUSA
100
AcDbSpline
210
0.0
220
0.0
230
1.0
 70
    24
 71
     3
 72
    14
 73
    10
 74
     0
 42
0.00000001
 43
0.0000000001
 40
0.0
 40
0.0
 40
0.0
 40
0.0
 40
0.125
 40
0.125
 40
0.25
 40
0.25
 40
0.5
 40
0.5
 40
1.0
 40
1.0
 40
1.0
 40
1.0
 10
4251.123039521564
 20
2289.214495509653
 30
0.0
 10
4251.12454213828
 20
2289.214494216875
 30
0.0
 10
4251.126045789025
 20
2289.21449400346
 30
0.0
 10
4251.129048550958
 20
2289.214494936127
 30
0.0
 10
4251.130548792064
 20
2289.214496084909
 30
0.0
 10
4251.135046250762
 20
2289.214500742161
 30
0.0
 10
4251.138025510416
 20
2289.214505465066
 30
0.0
 10
4251.146909980854
 20
2289.214519432708
 30
0.0
 10
4251.152763206643
 20
2289.214528129852
 30
0.0
 10
4251.158558433822
 20
2289.214544590954
 30
0.0
  0
SPLINE
  5
160A
330
1F
100
AcDbEntity
  8
SANINDUSA
100
AcDbSpline
210
0.0
220
0.0
230
1.0
 70
    24
 71
     3
 72
    14
 73
    10
 74
     0
 42
0.00000001
 43
0.0000000001
 40
0.0
 40
0.0
 40
0.0
 40
0.0
 40
0.125
 40
0.125
 40
0.25
 40
0.25
 40
0.5
 40
0.5
 40
1.0
 40
1.0
 40
1.0
 40
1.0
 10
4251.123039521564
 20
2289.214495509653
 30
0.0
 10
4251.121536904847
 20
2289.214494216963
 30
0.0
 10
4251.120033254102
 20
2289.21449400346
 30
0.0
 10
4251.11703049217
 20
2289.214494936127
 30
0.0
 10
4251.115530251064
 20
2289.214496084909
 30
0.0
 10
4251.111032792365
 20
2289.214500742161
 30
0.0
 10
4251.108053532711
 20
2289.214505465066
 30
0.0
 10
4251.099169062273
 20
2289.214519432708
 30
0.0
 10
4251.093315836484
 20
2289.214528129852
 30
0.0
 10
4251.087520609305
 20
2289.214544590954
 30
0.0
  0
SPLINE
  5
160C
330
1F
100
AcDbEntity
  8
SANINDUSA
100
AcDbSpline
210
0.0
220
0.0
230
1.0
 70
     8
 71
     3
 72
    38
 73
    34
 74
     0
 42
0.00000001
 43
0.0000000001
 40
0.0
 40
0.0
 40
0.0
 40
0.0
 40
0.124999999999998
 40
0.124999999999998
 40
0.1874999999999969
 40
0.1874999999999969
 40
0.2187499999999976
 40
0.2187499999999976
 40
0.2499999999999982
 40
0.2499999999999982
 40
0.3750000000000025
 40
0.3750000000000025
 40
0.4062500000000041
 40
0.4062500000000041
 40
0.4375000000000057
 40
0.4375000000000057
 40
0.5000000000000068
 40
0.5000000000000068
 40
0.5625000000000079
 40
0.5625000000000079
 40
0.5937500000000077
 40
0.5937500000000077
 40
0.6250000000000075
 40
0.6250000000000075
 40
0.750000000000005
 40
0.750000000000005
 40
0.7812500000000046
 40
0.7812500000000046
 40
0.8125000000000042
 40
0.8125000000000042
 40
0.8750000000000026
 40
0.8750000000000026
 40
1.0
 40
1.0
 40
1.0
 40
1.0
 10
4251.17241396046
 20
2289.124297140735
 30
0.0
 10
4251.172444484853
 20
2289.121665851483
 30
0.0
 10
4251.172274324656
 20
2289.119044196594
 30
0.0
 10
4251.171696312448
 20
2289.115121778142
 30
0.0
 10
4251.171449482181
 20
2289.113815996607
 30
0.0
 10
4251.170991185809
 20
2289.111859444027
 30
0.0
 10
4251.170823678818
 20
2289.111207838356
 30
0.0
 10
4251.170461202334
 20
2289.109916557299
 30
0.0
 10
4251.170265925305
 20
2289.109275490972
 30
0.0
 10
4251.169217875879
 20
2289.106093361247
 30
0.0
 10
4251.168152741469
 20
2289.103620919572
 30
0.0
 10
4251.166490298284
 20
2289.10063627201
 30
0.0
 10
4251.16614009432
 20
2289.100043150597
 30
0.0
 10
4251.165408862905
 20
2289.098875627862
 30
0.0
 10
4251.16502936081
 20
2289.098303475134
 30
0.0
 10
4251.16384899733
 20
2289.096622025488
 30
0.0
 10
4251.163006369603
 20
2289.095547656665
 30
0.0
 10
4251.161206481998
 20
2289.093494977559
 30
0.0
 10
4251.160249249021
 20
2289.092516646422
 30
0.0
 10
4251.158722647176
 20
2289.091125430711
 30
0.0
 10
4251.158198627524
 20
2289.090674429227
 30
0.0
 10
4251.157119125146
 20
2289.089798926852
 30
0.0
 10
4251.156566979777
 20
2289.089377284485
 30
0.0
 10
4251.153768768488
 20
2289.087366038419
 30
0.0
 10
4251.151388643493
 20
2289.086045823946
 30
0.0
 10
4251.148240002316
 20
2289.08474081107
 30
0.0
 10
4251.147601515717
 20
2289.084497232688
 30
0.0
 10
4251.146306771203
 20
2289.084045170043
 30
0.0
 10
4251.145648440008
 20
2289.083836173034
 30
0.0
 10
4251.143670776849
 20
2289.0832691543
 30
0.0
 10
4251.142343890082
 20
2289.082968656266
 30
0.0
 10
4251.138337207216
 20
2289.082284474729
 30
0.0
 10
4251.135631724345
 20
2289.082115650466
 30
0.0
 10
4251.132885950171
 20
2289.082225470727
 30
0.0
  0
SPLINE
  5
160D
330
1F
100
AcDbEntity
  8
SANINDUSA
100
AcDbSpline
210
0.0
220
0.0
230
1.0
 70
     8
 71
     3
 72
    38
 73
    34
 74
     0
 42
0.00000001
 43
0.0000000001
 40
0.0
 40
0.0
 40
0.0
 40
0.0
 40
0.124999999999998
 40
0.124999999999998
 40
0.1874999999999969
 40
0.1874999999999969
 40
0.2187499999999976
 40
0.2187499999999976
 40
0.2499999999999982
 40
0.2499999999999982
 40
0.3750000000000025
 40
0.3750000000000025
 40
0.4062500000000041
 40
0.4062500000000041
 40
0.4375000000000057
 40
0.4375000000000057
 40
0.5000000000000068
 40
0.5000000000000068
 40
0.5625000000000079
 40
0.5625000000000079
 40
0.5937500000000077
 40
0.5937500000000077
 40
0.6250000000000075
 40
0.6250000000000075
 40
0.750000000000005
 40
0.750000000000005
 40
0.7812500000000046
 40
0.7812500000000046
 40
0.8125000000000042
 40
0.8125000000000042
 40
0.8750000000000026
 40
0.8750000000000026
 40
1.0
 40
1.0
 40
1.0
 40
1.0
 10
4251.073665082667
 20
2289.124297140735
 30
0.0
 10
4251.073634558273
 20
2289.121665851483
 30
0.0
 10
4251.073804718472
 20
2289.119044196594
 30
0.0
 10
4251.07438273068
 20
2289.115121778142
 30
0.0
 10
4251.074629560945
 20
2289.113815996607
 30
0.0
 10
4251.075087857318
 20
2289.111859444027
 30
0.0
 10
4251.075255364309
 20
2289.111207838356
 30
0.0
 10
4251.075617840793
 20
2289.109916557299
 30
0.0
 10
4251.075813117823
 20
2289.109275490972
 30
0.0
 10
4251.076861167248
 20
2289.106093361247
 30
0.0
 10
4251.077926301659
 20
2289.103620919572
 30
0.0
 10
4251.079588744843
 20
2289.10063627201
 30
0.0
 10
4251.079938948808
 20
2289.100043150597
 30
0.0
 10
4251.080670180223
 20
2289.098875627862
 30
0.0
 10
4251.081049682317
 20
2289.098303475134
 30
0.0
 10
4251.082230045797
 20
2289.096622025488
 30
0.0
 10
4251.083072673525
 20
2289.095547656665
 30
0.0
 10
4251.08487256113
 20
2289.093494977559
 30
0.0
 10
4251.085829794107
 20
2289.092516646422
 30
0.0
 10
4251.087356395951
 20
2289.091125430711
 30
0.0
 10
4251.087880415603
 20
2289.090674429227
 30
0.0
 10
4251.088959917981
 20
2289.089798926852
 30
0.0
 10
4251.089512063351
 20
2289.089377284485
 30
0.0
 10
4251.09231027464
 20
2289.087366038419
 30
0.0
 10
4251.094690399635
 20
2289.086045823946
 30
0.0
 10
4251.097839040812
 20
2289.08474081107
 30
0.0
 10
4251.098477527411
 20
2289.084497232688
 30
0.0
 10
4251.099772271924
 20
2289.084045170043
 30
0.0
 10
4251.100430603119
 20
2289.083836173034
 30
0.0
 10
4251.102408266278
 20
2289.0832691543
 30
0.0
 10
4251.103735153046
 20
2289.082968656266
 30
0.0
 10
4251.107741835911
 20
2289.082284474729
 30
0.0
 10
4251.110447318782
 20
2289.082115650466
 30
0.0
 10
4251.113193092957
 20
2289.082225470727
 30
0.0
  0
SPLINE
  5
1610
330
1F
100
AcDbEntity
  8
SANINDUSA
100
AcDbSpline
210
0.0
220
0.0
230
1.0
 70
     8
 71
     3
 72
     8
 73
     4
 74
     0
 42
0.00000001
 43
0.0000000001
 40
0.0
 40
0.0
 40
0.0
 40
0.0
 40
1.0
 40
1.0
 40
1.0
 40
1.0
 10
4251.132885950171
 20
2289.082225470727
 30
0.0
 10
4251.129608302566
 20
2289.082288366496
 30
0.0
 10
4251.126326392908
 20
2289.082322199742
 30
0.0
 10
4251.123039521564
 20
2289.082322199741
 30
0.0
  0
SPLINE
  5
1611
330
1F
100
AcDbEntity
  8
SANINDUSA
100
AcDbSpline
210
0.0
220
0.0
230
1.0
 70
     8
 71
     3
 72
     8
 73
     4
 74
     0
 42
0.00000001
 43
0.0000000001
 40
0.0
 40
0.0
 40
0.0
 40
0.0
 40
1.0
 40
1.0
 40
1.0
 40
1.0
 10
4251.113193092957
 20
2289.082225470727
 30
0.0
 10
4251.116470740561
 20
2289.082288366496
 30
0.0
 10
4251.11975265022
 20
2289.082322199742
 30
0.0
 10
4251.123039521564
 20
2289.082322199741
 30
0.0
  0
ARC
  5
1655
330
1F
100
AcDbEntity
  8
SANINDUSA
100
AcDbCircle
 10
4252.585909030464
 20
2289.356993613428
 30
0.0
 40
0.0100000037086914
100
AcDbArc
 50
357.4305485581162
 51
90.00019004592818
  0
ARC
  5
1656
330
1F
100
AcDbEntity
  8
SANINDUSA
100
AcDbCircle
 10
4252.45541139712
 20
2289.033993613428
 30
0.0
 40
0.0020000003930383
100
AcDbArc
 50
269.9995259534386
 51
316.0927603812064
  0
SPLINE
  5
1657
330
1F
100
AcDbEntity
  8
SANINDUSA
100
AcDbSpline
210
0.0
220
0.0
230
1.0
 70
    24
 71
     3
 72
    29
 73
    25
 74
     0
 42
0.00000001
 43
0.0000000001
 40
0.0
 40
0.0
 40
0.0
 40
0.0
 40
0.0156249999999999
 40
0.0156249999999999
 40
0.0312499999999999
 40
0.0624999999999997
 40
0.0624999999999997
 40
0.125
 40
0.125
 40
0.1875000000000002
 40
0.1875000000000002
 40
0.2500000000000004
 40
0.2500000000000004
 40
0.3750000000000004
 40
0.3750000000000004
 40
0.5000000000000004
 40
0.5000000000000004
 40
0.6250000000000004
 40
0.6250000000000004
 40
0.6875000000000004
 40
0.6875000000000004
 40
0.7500000000000004
 40
0.7500000000000004
 40
1.0
 40
1.0
 40
1.0
 40
1.0
 10
4252.086261972419
 20
2289.031993613428
 30
0.0
 10
4252.086261972419
 20
2289.033610967853
 30
0.0
 10
4252.086261972419
 20
2289.035229091522
 30
0.0
 10
4252.086261972419
 20
2289.038469348604
 30
0.0
 10
4252.086261972419
 20
2289.043334620419
 30
0.0
 10
4252.086261972419
 20
2289.048214545602
 30
0.0
 10
4252.086261972419
 20
2289.057993926675
 30
0.0
 10
4252.086261972419
 20
2289.06453955258
 30
0.0
 10
4252.086261972419
 20
2289.07768290165
 30
0.0
 10
4252.086261972419
 20
2289.084282102621
 30
0.0
 10
4252.086261972419
 20
2289.097518086581
 30
0.0
 10
4252.086261972419
 20
2289.104156300336
 30
0.0
 10
4252.086261972419
 20
2289.124131491273
 30
0.0
 10
4252.086261972419
 20
2289.137528987721
 30
0.0
 10
4252.086261972419
 20
2289.164485498258
 30
0.0
 10
4252.086261972419
 20
2289.178052325279
 30
0.0
 10
4252.086261972419
 20
2289.205271109636
 30
0.0
 10
4252.086261972419
 20
2289.21893062704
 30
0.0
 10
4252.086261972419
 20
2289.239495033415
 30
0.0
 10
4252.086261972419
 20
2289.246362361989
 30
0.0
 10
4252.086261972419
 20
2289.260122119385
 30
0.0
 10
4252.086261972419
 20
2289.267016512141
 30
0.0
 10
4252.086261972419
 20
2289.301502537174
 30
0.0
 10
4252.086261972419
 20
2289.329167272786
 30
0.0
 10
4252.086261972419
 20
2289.35690803386
 30
0.0
  0
ARC
  5
165B
330
1F
100
AcDbEntity
  8
SANINDUSA
100
AcDbCircle
 10
4252.08826197242
 20
2289.364993613428
 30
0.0
 40
0.0019999999999999
100
AcDbArc
 50
90.0
 51
180.0
  0
SPLINE
  5
165D
330
1F
100
AcDbEntity
  8
SANINDUSA
100
AcDbSpline
210
0.0
220
0.0
230
1.0
 70
    24
 71
     3
 72
    27
 73
    23
 74
     0
 42
0.00000001
 43
0.0000000001
 40
0.0
 40
0.0
 40
0.0
 40
0.0
 40
0.1249999999999981
 40
0.1249999999999981
 40
0.1874999999999971
 40
0.1874999999999971
 40
0.249999999999996
 40
0.3124999999999948
 40
0.3124999999999948
 40
0.3749999999999936
 40
0.3749999999999936
 40
0.4999999999999949
 40
0.4999999999999949
 40
0.6249999999999963
 40
0.6249999999999963
 40
0.7499999999999975
 40
0.7499999999999975
 40
0.812499999999998
 40
0.812499999999998
 40
0.8749999999999985
 40
0.8749999999999985
 40
1.0
 40
1.0
 40
1.0
 40
1.0
 10
4252.086261972419
 20
2289.35690803386
 30
0.0
 10
4252.086261972419
 20
2289.357439838725
 30
0.0
 10
4252.086261972419
 20
2289.357966086574
 30
0.0
 10
4252.086261972419
 20
2289.358747205948
 30
0.0
 10
4252.086261972419
 20
2289.35900618084
 30
0.0
 10
4252.086261972419
 20
2289.359511681416
 30
0.0
 10
4252.086261972419
 20
2289.360007252125
 30
0.0
 10
4252.086261972419
 20
2289.360483275747
 30
0.0
 10
4252.086261972419
 20
2289.360949395433
 30
0.0
 10
4252.086261972419
 20
2289.361178663744
 30
0.0
 10
4252.086261972419
 20
2289.361841931349
 30
0.0
 10
4252.086261972419
 20
2289.362249099208
 30
0.0
 10
4252.086261972419
 20
2289.36299528147
 30
0.0
 10
4252.086261972419
 20
2289.363337035241
 30
0.0
 10
4252.086261972419
 20
2289.363924609723
 30
0.0
 10
4252.086261972419
 20
2289.364173252923
 30
0.0
 10
4252.086261972419
 20
2289.36447801024
 30
0.0
 10
4252.086261972419
 20
2289.364568488788
 30
0.0
 10
4252.086261972419
 20
2289.364722690903
 30
0.0
 10
4252.086261972419
 20
2289.364786809433
 30
0.0
 10
4252.086261972419
 20
2289.364941109207
 30
0.0
 10
4252.086261972419
 20
2289.364993613428
 30
0.0
 10
4252.086261972419
 20
2289.364993613428
 30
0.0
  0
SPLINE
  5
166A
330
1F
100
AcDbEntity
  8
SANINDUSA
100
AcDbSpline
210
0.0
220
0.0
230
1.0
 70
     8
 71
     3
 72
    29
 73
    25
 74
     0
 42
0.00000001
 43
0.0000000001
 40
0.0
 40
0.0
 40
0.0
 40
0.0
 40
0.1250000000000007
 40
0.1250000000000007
 40
0.1875000000000007
 40
0.1875000000000007
 40
0.2500000000000007
 40
0.3125000000000007
 40
0.3125000000000007
 40
0.3750000000000007
 40
0.3750000000000007
 40
0.5000000000000014
 40
0.5000000000000014
 40
0.562500000000001
 40
0.562500000000001
 40
0.6250000000000008
 40
0.6250000000000008
 40
0.75
 40
0.75
 40
0.8125000000000003
 40
0.8125000000000003
 40
0.8750000000000007
 40
0.8750000000000007
 40
1.0
 40
1.0
 40
1.0
 40
1.0
 10
4252.148261972419
 20
2289.316993613428
 30
0.0
 10
4252.147138175873
 20
2289.316993613428
 30
0.0
 10
4252.146026538872
 20
2289.316883262725
 30
0.0
 10
4252.144377203859
 20
2289.316553291183
 30
0.0
 10
4252.143832227402
 20
2289.316415761978
 30
0.0
 10
4252.142767844393
 20
2289.316090947405
 30
0.0
 10
4252.141724283169
 20
2289.315715501345
 30
0.0
 10
4252.140721818961
 20
2289.315240126724
 30
0.0
 10
4252.139740226678
 20
2289.314714005113
 30
0.0
 10
4252.139257275945
 20
2289.314423717737
 30
0.0
 10
4252.137864529692
 20
2289.313489652128
 30
0.0
 10
4252.13700951124
 20
2289.312784710335
 30
0.0
 10
4252.135834622228
 20
2289.311606902277
 30
0.0
 10
4252.135461060513
 20
2289.311194090327
 30
0.0
 10
4252.134751233239
 20
2289.310326761796
 30
0.0
 10
4252.13441875677
 20
2289.30987659673
 30
0.0
 10
4252.133496118961
 20
2289.308490759159
 30
0.0
 10
4252.132975749154
 20
2289.307514864575
 30
0.0
 10
4252.13233833565
 20
2289.305972514009
 30
0.0
 10
4252.132149256537
 20
2289.305442496315
 30
0.0
 10
4252.131827278985
 20
2289.304376624901
 30
0.0
 10
4252.131693430551
 20
2289.303839195822
 30
0.0
 10
4252.131371404136
 20
2289.302213756994
 30
0.0
 10
4252.131261972419
 20
2289.301112724825
 30
0.0
 10
4252.131261972419
 20
2289.299993613428
 30
0.0
  0
SPLINE
  5
166C
330
1F
100
AcDbEntity
  8
SANINDUSA
100
AcDbSpline
210
0.0
220
0.0
230
1.0
 70
    24
 71
     3
 72
     8
 73
     4
 74
     0
 42
0.00000001
 43
0.0000000001
 40
0.0
 40
0.0
 40
0.0
 40
0.0
 40
1.0
 40
1.0
 40
1.0
 40
1.0
 10
4252.211386347663
 20
2289.316993613428
 30
0.0
 10
4252.190346383851
 20
2289.316993613428
 30
0.0
 10
4252.16930510962
 20
2289.316993613428
 30
0.0
 10
4252.148261972419
 20
2289.316993613428
 30
0.0
  0
SPLINE
  5
166E
330
1F
100
AcDbEntity
  8
SANINDUSA
100
AcDbSpline
210
0.0
220
0.0
230
1.0
 70
     8
 71
     3
 72
    20
 73
    16
 74
     0
 42
0.00000001
 43
0.0000000001
 40
0.0
 40
0.0
 40
0.0
 40
0.0
 40
0.1250000000000002
 40
0.1250000000000002
 40
0.2500000000000005
 40
0.2500000000000005
 40
0.3750000000000008
 40
0.3750000000000008
 40
0.500000000000001
 40
0.500000000000001
 40
0.6250000000000013
 40
0.6250000000000013
 40
0.7500000000000016
 40
0.7500000000000016
 40
1.0
 40
1.0
 40
1.0
 40
1.0
 10
4252.216365078608
 20
2289.313186938843
 30
0.0
 10
4252.216301606582
 20
2289.313463938592
 30
0.0
 10
4252.216214137527
 20
2289.313731470582
 30
0.0
 10
4252.215992905693
 20
2289.314248269379
 30
0.0
 10
4252.215857903775
 20
2289.314499350808
 30
0.0
 10
4252.21554493512
 20
2289.314973910203
 30
0.0
 10
4252.215369525933
 20
2289.315194285773
 30
0.0
 10
4252.214982757466
 20
2289.315602923909
 30
0.0
 10
4252.214769727759
 20
2289.315792384115
 30
0.0
 10
4252.214314086982
 20
2289.316132551827
 30
0.0
 10
4252.214074961102
 20
2289.316281140113
 30
0.0
 10
4252.213575483327
 20
2289.316537985547
 30
0.0
 10
4252.213313961107
 20
2289.316646595895
 30
0.0
 10
4252.212504417701
 20
2289.316908347128
 30
0.0
 10
4252.211951660134
 20
2289.316993613428
 30
0.0
 10
4252.211386347663
 20
2289.316993613428
 30
0.0
  0
SPLINE
  5
1670
330
1F
100
AcDbEntity
  8
SANINDUSA
100
AcDbSpline
210
0.0
220
0.0
230
1.0
 70
    24
 71
     3
 72
     8
 73
     4
 74
     0
 42
0.00000001
 43
0.0000000001
 40
0.0
 40
0.0
 40
0.0
 40
0.0
 40
1.0
 40
1.0
 40
1.0
 40
1.0
 10
4252.131261972419
 20
2289.299993613428
 30
0.0
 10
4252.131261972419
 20
2289.279347513816
 30
0.0
 10
4252.131261972419
 20
2289.258772588028
 30
0.0
 10
4252.131261972419
 20
2289.238268886356
 30
0.0
  0
SPLINE
  5
1672
330
1F
100
AcDbEntity
  8
SANINDUSA
100
AcDbSpline
210
0.0
220
0.0
230
1.0
 70
    24
 71
     3
 72
     8
 73
     4
 74
     0
 42
0.00000001
 43
0.0000000001
 40
0.0
 40
0.0
 40
0.0
 40
0.0
 40
0.0012173666846909
 40
0.0012173666846909
 40
0.0012173666846909
 40
0.0012173666846909
 10
4252.216643020147
 20
2289.312005382364
 30
0.0
 10
4252.21655037705
 20
2289.312399216111
 30
0.0
 10
4252.216457729839
 20
2289.31279306841
 30
0.0
 10
4252.216365078608
 20
2289.313186938843
 30
0.0
  0
SPLINE
  5
1673
330
1F
100
AcDbEntity
  8
SANINDUSA
100
AcDbSpline
210
0.0
220
0.0
230
1.0
 70
    24
 71
     3
 72
     8
 73
     4
 74
     0
 42
0.00000001
 43
0.0000000001
 40
0.0
 40
0.0
 40
0.0
 40
0.0
 40
1.0
 40
1.0
 40
1.0
 40
1.0
 10
4252.233624709758
 20
2289.239827524025
 30
0.0
 10
4252.227986331927
 20
2289.263788545713
 30
0.0
 10
4252.222326135244
 20
2289.287845972802
 30
0.0
 10
4252.216643020147
 20
2289.312005382364
 30
0.0
  0
SPLINE
  5
167A
330
1F
100
AcDbEntity
  8
SANINDUSA
100
AcDbSpline
210
0.0
220
0.0
230
1.0
 70
     8
 71
     3
 72
    24
 73
    20
 74
     0
 42
0.00000001
 43
0.0000000001
 40
0.0
 40
0.0
 40
0.0
 40
0.0
 40
0.1249999999999993
 40
0.1249999999999993
 40
0.2499999999999986
 40
0.2499999999999986
 40
0.3749999999999979
 40
0.3749999999999979
 40
0.4999999999999973
 40
0.4999999999999973
 40
0.6249999999999966
 40
0.6249999999999966
 40
0.7499999999999958
 40
0.7499999999999958
 40
0.8124999999999975
 40
0.8124999999999975
 40
0.8749999999999991
 40
0.8749999999999991
 40
1.0
 40
1.0
 40
1.0
 40
1.0
 10
4252.131261972419
 20
2289.238268886356
 30
0.0
 10
4252.131261972419
 20
2289.237934748291
 30
0.0
 10
4252.13129320767
 20
2289.237604142419
 30
0.0
 10
4252.131418101827
 20
2289.23694998834
 30
0.0
 10
4252.131511650587
 20
2289.236629677931
 30
0.0
 10
4252.13175551728
 20
2289.236017422109
 30
0.0
 10
4252.131907127925
 20
2289.235721724278
 30
0.0
 10
4252.132267964213
 20
2289.235161564389
 30
0.0
 10
4252.132472910833
 20
2289.234903149518
 30
0.0
 10
4252.132931179831
 20
2289.23442903544
 30
0.0
 10
4252.133187825444
 20
2289.234211400747
 30
0.0
 10
4252.133732928287
 20
2289.233836734757
 30
0.0
 10
4252.134021576943
 20
2289.233678285064
 30
0.0
 10
4252.134479063619
 20
2289.233484582795
 30
0.0
 10
4252.134636624783
 20
2289.233427147805
 30
0.0
 10
4252.134954198012
 20
2289.23332956534
 30
0.0
 10
4252.135114391625
 20
2289.233289214379
 30
0.0
 10
4252.135599095859
 20
2289.233192892428
 30
0.0
 10
4252.135927688327
 20
2289.233161402597
 30
0.0
 10
4252.136261972419
 20
2289.233164044376
 30
0.0
  0
SPLINE
  5
167C
330
1F
100
AcDbEntity
  8
SANINDUSA
100
AcDbSpline
210
0.0
220
0.0
230
1.0
 70
     8
 71
     3
 72
     8
 73
     4
 74
     0
 42
0.00000001
 43
0.0000000001
 40
0.0
 40
0.0
 40
0.0
 40
0.0
 40
1.0
 40
1.0
 40
1.0
 40
1.0
 10
4252.136261972419
 20
2289.233164044376
 30
0.0
 10
4252.167094499283
 20
2289.233285875984
 30
0.0
 10
4252.197910293635
 20
2289.23354879118
 30
0.0
 10
4252.228715786977
 20
2289.233898561453
 30
0.0
  0
SPLINE
  5
167E
330
1F
100
AcDbEntity
  8
SANINDUSA
100
AcDbSpline
210
0.0
220
0.0
230
1.0
 70
     8
 71
     3
 72
    22
 73
    18
 74
     0
 42
0.00000001
 43
0.0000000001
 40
0.0
 40
0.0
 40
0.0
 40
0.0
 40
0.125
 40
0.125
 40
0.25
 40
0.25
 40
0.375
 40
0.375
 40
0.5
 40
0.5
 40
0.625
 40
0.625
 40
0.75
 40
0.75
 40
0.875
 40
0.875
 40
1.0
 40
1.0
 40
1.0
 40
1.0
 10
4252.228715786977
 20
2289.233898561453
 30
0.0
 10
4252.229093318436
 20
2289.233884283613
 30
0.0
 10
4252.229472392793
 20
2289.233908387229
 30
0.0
 10
4252.230208567704
 20
2289.234033781479
 30
0.0
 10
4252.230567272932
 20
2289.23413441368
 30
0.0
 10
4252.231264163449
 20
2289.234418703763
 30
0.0
 10
4252.231593414255
 20
2289.234599327099
 30
0.0
 10
4252.232199662278
 20
2289.235032907791
 30
0.0
 10
4252.232481717594
 20
2289.235291148158
 30
0.0
 10
4252.232965418541
 20
2289.235861185565
 30
0.0
 10
4252.233170373138
 20
2289.23617379934
 30
0.0
 10
4252.233502479607
 20
2289.236857279988
 30
0.0
 10
4252.233622251434
 20
2289.237213272093
 30
0.0
 10
4252.233774108858
 20
2289.237948841269
 30
0.0
 10
4252.233805288602
 20
2289.238333160354
 30
0.0
 10
4252.233778592741
 20
2289.239085830065
 30
0.0
 10
4252.233722438405
 20
2289.239458470459
 30
0.0
 10
4252.233624709758
 20
2289.239827524025
 30
0.0
  0
SPLINE
  5
1684
330
1F
100
AcDbEntity
  8
SANINDUSA
100
AcDbSpline
210
0.0
220
0.0
230
1.0
 70
    24
 71
     3
 72
    16
 73
    12
 74
     0
 42
0.00000001
 43
0.0000000001
 40
0.0
 40
0.0
 40
0.0
 40
0.0
 40
0.125
 40
0.125
 40
0.25
 40
0.25
 40
0.375
 40
0.375
 40
0.5
 40
0.5
 40
1.0
 40
1.0
 40
1.0
 40
1.0
 10
4252.357876380463
 20
2289.031993613428
 30
0.0
 10
4252.34660752163
 20
2289.031993613428
 30
0.0
 10
4252.335328039479
 20
2289.031993613428
 30
0.0
 10
4252.312756140951
 20
2289.031993613428
 30
0.0
 10
4252.301463690131
 20
2289.031993613428
 30
0.0
 10
4252.278865707383
 20
2289.031993613428
 30
0.0
 10
4252.267560187784
 20
2289.031993613428
 30
0.0
 10
4252.244936097385
 20
2289.031993613428
 30
0.0
 10
4252.233616432511
 20
2289.031993613428
 30
0.0
 10
4252.176997124154
 20
2289.031993613428
 30
0.0
 10
4252.13169214528
 20
2289.031993613428
 30
0.0
 10
4252.086377544874
 20
2289.031993613428
 30
0.0
  0
SPLINE
  5
1685
330
1F
100
AcDbEntity
  8
SANINDUSA
100
AcDbSpline
210
0.0
220
0.0
230
1.0
 70
    24
 71
     3
 72
    25
 73
    21
 74
     0
 42
0.00000001
 43
0.0000000001
 40
0.0
 40
0.0
 40
0.0
 40
0.0
 40
0.0285493768465715
 40
0.0858471786936097
 40
0.1433497203440295
 40
0.20085256472385
 40
0.2581507359792967
 40
0.3154647847269175
 40
0.372983733932767
 40
0.4305028210277089
 40
0.4878168969963365
 40
0.545124235133407
 40
0.6026364314945257
 40
0.6601483958429288
 40
0.7174554810955355
 40
0.7747613901103922
 40
0.8322718283849825
 40
0.8897818575350365
 40
0.9470872882168597
 40
1.0
 40
1.0
 40
1.0
 40
1.0
 10
4252.455411389104
 20
2289.031993605084
 30
0.0
 10
4252.455392331909
 20
2289.031993605084
 30
0.0
 10
4252.455335027458
 20
2289.031993605084
 30
0.0
 10
4252.454663094606
 20
2289.031993605084
 30
0.0
 10
4252.453128297306
 20
2289.031993605084
 30
0.0
 10
4252.450838856346
 20
2289.031993605084
 30
0.0
 10
4252.447819796414
 20
2289.031993605084
 30
0.0
 10
4252.444064815306
 20
2289.031993605084
 30
0.0
 10
4252.43961745145
 20
2289.031993605084
 30
0.0
 10
4252.434519169734
 20
2289.031993605084
 30
0.0
 10
4252.428806601145
 20
2289.031993605084
 30
0.0
 10
4252.422497655248
 20
2289.031993605084
 30
0.0
 10
4252.415647212091
 20
2289.031993605084
 30
0.0
 10
4252.408314321731
 20
2289.031993605084
 30
0.0
 10
4252.400554625428
 20
2289.031993605084
 30
0.0
 10
4252.392404250395
 20
2289.031993605084
 30
0.0
 10
4252.383923893402
 20
2289.031993605084
 30
0.0
 10
4252.375182444191
 20
2289.031993605084
 30
0.0
 10
4252.366482458566
 20
2289.031993605084
 30
0.0
 10
4252.360667822492
 20
2289.031993605084
 30
0.0
 10
4252.357876374952
 20
2289.031993605084
 30
0.0
  0
LINE
  5
1687
330
1F
100
AcDbEntity
  8
SANINDUSA
100
AcDbLine
 10
4252.252419218055
 20
2289.028788097089
 30
0.0
 11
4252.251252501838
 21
2289.031993605084
 31
0.0
  0
ARC
  5
1688
330
1F
100
AcDbEntity
  8
SANINDUSA
100
AcDbCircle
 10
4252.340648951104
 20
2289.085071229666
 30
0.0
 40
0.08
100
AcDbArc
 50
279.9406037705845
 51
318.3470636554883
  0
SPLINE
  5
1689
330
1F
100
AcDbEntity
  8
SANINDUSA
100
AcDbSpline
210
0.0
220
0.0
230
1.0
 70
     8
 71
     3
 72
    36
 73
    32
 74
     0
 42
0.00000001
 43
0.0000000001
 40
0.0
 40
0.0
 40
0.0
 40
0.0
 40
0.0158561846711336
 40
0.0320132607237622
 40
0.0484722038390807
 40
0.0652339369828814
 40
0.0822993339912268
 40
0.0996692228690298
 40
0.1173443888273922
 40
0.1353255770830464
 40
0.1536134954408551
 40
0.1722088166784641
 40
0.1911121807503397
 40
0.2103241968266695
 40
0.2298454451812692
 40
0.2496764789412306
 40
0.2932689432546516
 40
0.3495763655361437
 40
0.4186013524324128
 40
0.5003452083864583
 40
0.5519967192483513
 40
0.5996783393878078
 40
0.6433909893867284
 40
0.6831358694878267
 40
0.7189145831742639
 40
0.7507293376248995
 40
0.815063652787829
 40
0.8754554816863283
 40
0.9082731392494917
 40
0.9497866798107901
 40
1.0
 40
1.0
 40
1.0
 40
1.0
 10
4252.354459125034
 20
2289.006272250636
 30
0.0
 10
4252.354108114436
 20
2289.006211125314
 30
0.0
 10
4252.353399432366
 20
2289.00608771474
 30
0.0
 10
4252.352325526907
 20
2289.005906000543
 30
0.0
 10
4252.351230999248
 20
2289.005724831115
 30
0.0
 10
4252.350115757772
 20
2289.005544815239
 30
0.0
 10
4252.348979800581
 20
2289.005366090835
 30
0.0
 10
4252.347823102653
 20
2289.005188931253
 30
0.0
 10
4252.34664564704
 20
2289.005013578298
 30
0.0
 10
4252.345447416352
 20
2289.004840288196
 30
0.0
 10
4252.344228395348
 20
2289.004669318957
 30
0.0
 10
4252.342988569874
 20
2289.004500933796
 30
0.0
 10
4252.34172792901
 20
2289.004335400379
 30
0.0
 10
4252.340446457986
 20
2289.004172990298
 30
0.0
 10
4252.33914416554
 20
2289.00401398198
 30
0.0
 10
4252.337299408328
 20
2289.003797420483
 30
0.0
 10
4252.33463667582
 20
2289.003504994922
 30
0.0
 10
4252.330878423591
 20
2289.003136923527
 30
0.0
 10
4252.326267539088
 20
2289.002753880134
 30
0.0
 10
4252.321756524507
 20
2289.002459529604
 30
0.0
 10
4252.317717507548
 20
2289.002259501203
 30
0.0
 10
4252.314523482132
 20
2289.002138691879
 30
0.0
 10
4252.311592923804
 20
2289.00205938792
 30
0.0
 10
4252.30892626025
 20
2289.0020134296
 30
0.0
 10
4252.30652389897
 20
2289.001993398237
 30
0.0
 10
4252.303568837117
 20
2289.001992287883
 30
0.0
 10
4252.300058492442
 20
2289.002030825009
 30
0.0
 10
4252.296522675689
 20
2289.002121519981
 30
0.0
 10
4252.293498051663
 20
2289.0022330209
 30
0.0
 10
4252.290702332523
 20
2289.002358596167
 30
0.0
 10
4252.288644756998
 20
2289.002479956425
 30
0.0
 10
4252.287518394473
 20
2289.002546391725
 30
0.0
  0
ARC
  5
1698
330
1F
100
AcDbEntity
  8
SANINDUSA
100
AcDbCircle
 10
4252.290006917834
 20
2289.042468907357
 30
0.0
 40
0.04
100
AcDbArc
 50
200.000000000605
 51
266.4305117759671
  0
SPLINE
  5
16A3
330
1F
100
AcDbEntity
  8
SANINDUSA
100
AcDbSpline
210
0.0
220
0.0
230
1.0
 70
     8
 71
     3
 72
    12
 73
     8
 74
     0
 42
0.00000001
 43
0.0000000001
 40
0.0
 40
0.0
 40
0.0
 40
0.0
 40
0.0721787665054006
 40
0.3079809707649797
 40
0.5681416846454372
 40
0.8533403478937968
 40
1.0
 40
1.0
 40
1.0
 40
1.0
 10
4251.887476234991
 20
2289.278397120573
 30
0.0
 10
4251.887523323008
 20
2289.278779564937
 30
0.0
 10
4251.88772424378
 20
2289.280411424168
 30
0.0
 10
4251.887987251244
 20
2289.282598373127
 30
0.0
 10
4251.888280761161
 20
2289.285126659146
 30
0.0
 10
4251.888470027668
 20
2289.286874766586
 30
0.0
 10
4251.888535964934
 20
2289.28763438809
 30
0.0
 10
4251.888558357317
 20
2289.287892356552
 30
0.0
  0
SPLINE
  5
16A4
330
1F
100
AcDbEntity
  8
SANINDUSA
100
AcDbSpline
210
0.0
220
0.0
230
1.0
 70
     8
 71
     3
 72
    20
 73
    16
 74
     0
 42
0.00000001
 43
0.0000000001
 40
0.0
 40
0.0
 40
0.0
 40
0.0
 40
0.1039273835875252
 40
0.2147925830744271
 40
0.3197409596928127
 40
0.4186897279624369
 40
0.5115726623912883
 40
0.5983368883303239
 40
0.6789402989172759
 40
0.7533496925895462
 40
0.8215387093279343
 40
0.8834866375432897
 40
0.9391771603983736
 40
0.9885971139808729
 40
0.9999999999999998
 40
0.9999999999999998
 40
0.9999999999999998
 40
0.9999999999999998
 10
4251.830756451747
 20
2289.033274371885
 30
0.0
 10
4251.833156723254
 20
2289.039828508424
 30
0.0
 10
4251.838117499707
 20
2289.053374311932
 30
0.0
 10
4251.844890189124
 20
2289.073743491807
 30
0.0
 10
4251.851152667657
 20
2289.093915895274
 30
0.0
 10
4251.856645944771
 20
2289.113051520332
 30
0.0
 10
4251.861449861817
 20
2289.131105392205
 30
0.0
 10
4251.865624418102
 20
2289.148045121535
 30
0.0
 10
4251.869230995034
 20
2289.163842335192
 30
0.0
 10
4251.872327222105
 20
2289.178473659883
 30
0.0
 10
4251.874966066353
 20
2289.19191988186
 30
0.0
 10
4251.877201261735
 20
2289.20416451957
 30
0.0
 10
4251.87906773151
 20
2289.215196244851
 30
0.0
 10
4251.880306133609
 20
2289.222900428241
 30
0.0
 10
4251.8810592524
 20
2289.226929965511
 30
0.0
 10
4251.881172209341
 20
2289.227597944476
 30
0.0
  0
SPLINE
  5
16A5
330
1F
100
AcDbEntity
  8
SANINDUSA
100
AcDbSpline
210
0.0
220
0.0
230
1.0
 70
     8
 71
     3
 72
    20
 73
    16
 74
     0
 42
0.00000001
 43
0.0000000001
 40
0.0
 40
0.0
 40
0.0
 40
0.0
 40
0.0114077134589737
 40
0.0608238929763808
 40
0.1165111271063469
 40
0.1784564683682088
 40
0.246643476038647
 40
0.3210514982461918
 40
0.4016541943908489
 40
0.48841837435202
 40
0.5813019140049727
 40
0.6802520570202608
 40
0.7852022009021104
 40
0.8960699520934294
 40
1.0
 40
1.0
 40
1.0
 40
1.0
 10
4251.537700950462
 20
2289.227597944476
 30
0.0
 10
4251.53784238784
 20
2289.226910259942
 30
0.0
 10
4251.538576191387
 20
2289.222880284122
 30
0.0
 10
4251.539814507294
 20
2289.215175783416
 30
0.0
 10
4251.541680735707
 20
2289.204144136419
 30
0.0
 10
4251.543915780849
 20
2289.191899614764
 30
0.0
 10
4251.546554394159
 20
2289.178453479173
 30
0.0
 10
4251.549650446036
 20
2289.163822248986
 30
0.0
 10
4251.55325690131
 20
2289.148025132067
 30
0.0
 10
4251.557431323339
 20
2289.131085483017
 30
0.0
 10
4251.562235094247
 20
2289.11303166381
 30
0.0
 10
4251.567728301625
 20
2289.093896099379
 30
0.0
 10
4251.573990729847
 20
2289.073723735755
 30
0.0
 10
4251.580763377575
 20
2289.053354579191
 30
0.0
 10
4251.58572414949
 20
2289.039808801014
 30
0.0
 10
4251.588124422048
 20
2289.033254667868
 30
0.0
  0
SPLINE
  5
16A6
330
1F
100
AcDbEntity
  8
SANINDUSA
100
AcDbSpline
210
0.0
220
0.0
230
1.0
 70
     8
 71
     3
 72
    12
 73
     8
 74
     0
 42
0.00000001
 43
0.0000000001
 40
0.0
 40
0.0
 40
0.0
 40
0.0
 40
0.1475565203980712
 40
0.4335672939278677
 40
0.6944085746597765
 40
0.9307570512399202
 40
1.0
 40
1.0
 40
1.0
 40
1.0
 10
4251.530314623673
 20
2289.287894837596
 30
0.0
 10
4251.530337084521
 20
2289.287636098306
 30
0.0
 10
4251.530403081531
 20
2289.286875841194
 30
0.0
 10
4251.530592653226
 20
2289.285127124645
 30
0.0
 10
4251.530886717454
 20
2289.282597455033
 30
0.0
 10
4251.53114826076
 20
2289.280425347609
 30
0.0
 10
4251.531347320398
 20
2289.278810231627
 30
0.0
 10
4251.531392424662
 20
2289.278444267847
 30
0.0
  0
ARC
  5
16A7
330
1F
100
AcDbEntity
  8
SANINDUSA
100
AcDbCircle
 10
4251.828890254702
 20
2289.033993613579
 30
0.0
 40
0.0020000000062155
100
AcDbArc
 50
269.9984686373204
 51
338.9230873017154
  0
ARC
  5
16A8
330
1F
100
AcDbEntity
  8
SANINDUSA
100
AcDbCircle
 10
4251.589982905101
 20
2289.033993613579
 30
0.0
 40
0.0020000000061643
100
AcDbArc
 50
201.6831105176879
 51
270.0015313626796
  0
SPLINE
  5
16A9
330
1F
100
AcDbEntity
  8
SANINDUSA
100
AcDbSpline
210
0.0
220
0.0
230
1.0
 70
     8
 71
     3
 72
    21
 73
    17
 74
     0
 42
0.00000001
 43
0.0000000001
 40
0.0
 40
0.0
 40
0.0
 40
0.0
 40
0.0874174173557777
 40
0.176355815875404
 40
0.2663037391208319
 40
0.3565415294199627
 40
0.4460277809906519
 40
0.5340998886568215
 40
0.6209928964245986
 40
0.7081697169300584
 40
0.7525926234881854
 40
0.7984858806608227
 40
0.8471342219311912
 40
0.8999920206588644
 40
0.954830875639093
 40
0.9999999999999998
 40
0.9999999999999998
 40
0.9999999999999998
 40
0.9999999999999998
 10
4251.718931549524
 20
2289.001993604042
 30
0.0
 10
4251.720497560947
 20
2289.002038321124
 30
0.0
 10
4251.723656830928
 20
2289.00212853332
 30
0.0
 10
4251.728430083496
 20
2289.002884672656
 30
0.0
 10
4251.733221874043
 20
2289.00414325377
 30
0.0
 10
4251.737945954268
 20
2289.00596896285
 30
0.0
 10
4251.742493678559
 20
2289.008338672679
 30
0.0
 10
4251.746759960223
 20
2289.011215964198
 30
0.0
 10
4251.75063482669
 20
2289.014514936714
 30
0.0
 10
4251.753537244833
 20
2289.017612373957
 30
0.0
 10
4251.755671221508
 20
2289.020319091441
 30
0.0
 10
4251.757194967523
 20
2289.022503472719
 30
0.0
 10
4251.758620346625
 20
2289.024834866412
 30
0.0
 10
4251.759883879238
 20
2289.027240699845
 30
0.0
 10
4251.760946998863
 20
2289.029573841439
 30
0.0
 10
4251.76155872595
 20
2289.031240741256
 30
0.0
 10
4251.761835015673
 20
2289.031993605235
 30
0.0
  0
SPLINE
  5
16AA
330
1F
100
AcDbEntity
  8
SANINDUSA
100
AcDbSpline
210
0.0
220
0.0
230
1.0
 70
     8
 71
     3
 72
    21
 73
    17
 74
     0
 42
0.00000001
 43
0.0000000001
 40
0.0
 40
0.0
 40
0.0
 40
0.0
 40
0.0224082784594664
 40
0.0667662494115605
 40
0.1098833744936063
 40
0.1687582075384348
 40
0.2297821867224474
 40
0.2910785928502919
 40
0.381058297818061
 40
0.4703584510808681
 40
0.5593118982462056
 40
0.6477322365957859
 40
0.7361589584044231
 40
0.8246875391383918
 40
0.9128973107138326
 40
1.0
 40
1.0
 40
1.0
 40
1.0
 10
4251.657017692287
 20
2289.031993605235
 30
0.0
 10
4251.657141577486
 20
2289.031642462253
 30
0.0
 10
4251.657510697769
 20
2289.030596219459
 30
0.0
 10
4251.658356182665
 20
2289.028640149214
 30
0.0
 10
4251.659593817738
 20
2289.026098232285
 30
0.0
 10
4251.661112078789
 20
2289.023424717512
 30
0.0
 10
4251.662921196854
 20
2289.020705124707
 30
0.0
 10
4251.665279179975
 20
2289.017670666261
 30
0.0
 10
4251.668419633005
 20
2289.014337563475
 30
0.0
 10
4251.672371098236
 20
2289.011012722317
 30
0.0
 10
4251.676655855933
 20
2289.008170664556
 30
0.0
 10
4251.681199066819
 20
2289.005847698563
 30
0.0
 10
4251.685865074017
 20
2289.004077871815
 30
0.0
 10
4251.690580621254
 20
2289.002858984057
 30
0.0
 10
4251.695281199503
 20
2289.002124916212
 30
0.0
 10
4251.698394693832
 20
2289.002037190104
 30
0.0
 10
4251.69994161028
 20
2289.001993604042
 30
0.0
  0
LINE
  5
16AB
330
1F
100
AcDbEntity
  8
SANINDUSA
100
AcDbLine
 10
4251.6999459549
 20
2289.001993604042
 30
0.0
 11
4251.718927204904
 21
2289.001993604042
 31
0.0
  0
SPLINE
  5
16BB
330
1F
100
AcDbEntity
  8
SANINDUSA
100
AcDbSpline
210
0.0
220
0.0
230
1.0
 70
     8
 71
     3
 72
    29
 73
    25
 74
     0
 42
0.00000001
 43
0.0000000001
 40
0.0
 40
0.0
 40
0.0
 40
0.0
 40
0.1250000000000022
 40
0.1250000000000022
 40
0.1875000000000033
 40
0.1875000000000033
 40
0.2500000000000044
 40
0.2500000000000044
 40
0.3750000000000066
 40
0.3750000000000066
 40
0.4375000000000077
 40
0.4375000000000077
 40
0.5000000000000088
 40
0.5000000000000088
 40
0.6250000000000117
 40
0.6250000000000117
 40
0.6875000000000106
 40
0.6875000000000106
 40
0.7500000000000094
 40
0.8125000000000081
 40
0.8125000000000081
 40
0.8750000000000071
 40
0.8750000000000071
 40
1.0
 40
1.0
 40
1.0
 40
1.0
 10
4251.881172215543
 20
2289.227597943837
 30
0.0
 10
4251.88118201099
 20
2289.227595270287
 30
0.0
 10
4251.881201145446
 20
2289.227658123692
 30
0.0
 10
4251.88124324963
 20
2289.227846663508
 30
0.0
 10
4251.881259534186
 20
2289.227925338074
 30
0.0
 10
4251.881296692909
 20
2289.228115078132
 30
0.0
 10
4251.881317641476
 20
2289.228226597458
 30
0.0
 10
4251.881385989746
 20
2289.228602618013
 30
0.0
 10
4251.881439204024
 20
2289.228909942104
 30
0.0
 10
4251.881530227461
 20
2289.229455048467
 30
0.0
 10
4251.881562609831
 20
2289.229651867255
 30
0.0
 10
4251.881630473632
 20
2289.230070056822
 30
0.0
 10
4251.881665747681
 20
2289.230290122244
 30
0.0
 10
4251.881775420588
 20
2289.230982188542
 30
0.0
 10
4251.88185363457
 20
2289.23148575928
 30
0.0
 10
4251.881978580459
 20
2289.232305846985
 30
0.0
 10
4251.882021330795
 20
2289.232588934003
 30
0.0
 10
4251.882107540512
 20
2289.233164751545
 30
0.0
 10
4251.88219486486
 20
2289.233752867783
 30
0.0
 10
4251.882284333043
 20
2289.234365218442
 30
0.0
 10
4251.882374865162
 20
2289.234989851774
 30
0.0
 10
4251.882420876312
 20
2289.235309811395
 30
0.0
 10
4251.882558582241
 20
2289.236275088007
 30
0.0
 10
4251.882650001295
 20
2289.236925990739
 30
0.0
 10
4251.882740997539
 20
2289.237584333926
 30
0.0
  0
SPLINE
  5
16BC
330
1F
100
AcDbEntity
  8
SANINDUSA
100
AcDbSpline
210
0.0
220
0.0
230
1.0
 70
     8
 71
     3
 72
    10
 73
     6
 74
     0
 42
0.00000001
 43
0.0000000001
 40
0.0
 40
0.0
 40
0.0
 40
0.0
 40
0.2433760315767405
 40
0.7301483566369468
 40
0.9999999999999998
 40
0.9999999999999998
 40
0.9999999999999998
 40
0.9999999999999998
 10
4251.882741003591
 20
2289.237584330179
 30
0.0
 10
4251.883185501474
 20
2289.240887912906
 30
0.0
 10
4251.884519032127
 20
2289.250798936123
 30
0.0
 10
4251.886138540258
 20
2289.264401658945
 30
0.0
 10
4251.887088572681
 20
2289.274721260563
 30
0.0
 10
4251.887427403886
 20
2289.278401769736
 30
0.0
  0
SPLINE
  5
16BD
330
1F
100
AcDbEntity
  8
SANINDUSA
100
AcDbSpline
210
0.0
220
0.0
230
1.0
 70
     8
 71
     3
 72
    10
 73
     6
 74
     0
 42
0.00000001
 43
0.0000000001
 40
0.0
 40
0.0
 40
0.0
 40
0.0
 40
0.3387853177511025
 40
0.6775706648244883
 40
1.0
 40
1.0
 40
1.0
 40
1.0
 10
4251.527004926759
 20
2289.356886639298
 30
0.0
 10
4251.527147633938
 20
2289.349085989416
 30
0.0
 10
4251.527433048305
 20
2289.333484688979
 30
0.0
 10
4251.52854511623
 20
2289.310478128079
 30
0.0
 10
4251.529741336874
 20
2289.295297925425
 30
0.0
 10
4251.530324652154
 20
2289.287895575204
 30
0.0
  0
SPLINE
  5
16C0
330
1F
100
AcDbEntity
  8
SANINDUSA
100
AcDbSpline
210
0.0
220
0.0
230
1.0
 70
     8
 71
     3
 72
    10
 73
     6
 74
     0
 42
0.00000001
 43
0.0000000001
 40
0.0
 40
0.0
 40
0.0
 40
0.0
 40
0.3387731199536071
 40
0.6775462692284417
 40
1.0
 40
1.0
 40
1.0
 40
1.0
 10
4251.891868233044
 20
2289.356886639298
 30
0.0
 10
4251.891725526557
 20
2289.349085989368
 30
0.0
 10
4251.891440113573
 20
2289.333484688833
 30
0.0
 10
4251.890327995404
 20
2289.310477300281
 30
0.0
 10
4251.889131709375
 20
2289.295296271004
 30
0.0
 10
4251.888548328835
 20
2289.28789309416
 30
0.0
  0
SPLINE
  5
16C2
330
1F
100
AcDbEntity
  8
SANINDUSA
100
AcDbSpline
210
0.0
220
0.0
230
1.0
 70
     8
 71
     3
 72
    29
 73
    25
 74
     0
 42
0.00000001
 43
0.0000000001
 40
0.0
 40
0.0
 40
0.0
 40
0.0
 40
0.1250000000000022
 40
0.1250000000000022
 40
0.1875000000000033
 40
0.1875000000000033
 40
0.2500000000000044
 40
0.2500000000000044
 40
0.3750000000000066
 40
0.3750000000000066
 40
0.4375000000000077
 40
0.4375000000000077
 40
0.5000000000000088
 40
0.5000000000000088
 40
0.6250000000000117
 40
0.6250000000000117
 40
0.6875000000000106
 40
0.6875000000000106
 40
0.7500000000000094
 40
0.8125000000000081
 40
0.8125000000000081
 40
0.8750000000000071
 40
0.8750000000000071
 40
1.0
 40
1.0
 40
1.0
 40
1.0
 10
4251.53770094426
 20
2289.227597943837
 30
0.0
 10
4251.537691148814
 20
2289.227595270287
 30
0.0
 10
4251.537672014358
 20
2289.227658123692
 30
0.0
 10
4251.537629910173
 20
2289.227846663508
 30
0.0
 10
4251.537613625617
 20
2289.227925338074
 30
0.0
 10
4251.537576466895
 20
2289.228115078132
 30
0.0
 10
4251.537555518328
 20
2289.228226597458
 30
0.0
 10
4251.537487170057
 20
2289.228602618013
 30
0.0
 10
4251.53743395578
 20
2289.228909942104
 30
0.0
 10
4251.537342932342
 20
2289.229455048467
 30
0.0
 10
4251.537310549972
 20
2289.229651867255
 30
0.0
 10
4251.537242686171
 20
2289.230070056822
 30
0.0
 10
4251.537207412122
 20
2289.230290122244
 30
0.0
 10
4251.537097739215
 20
2289.230982188542
 30
0.0
 10
4251.537019525233
 20
2289.23148575928
 30
0.0
 10
4251.536894579345
 20
2289.232305846985
 30
0.0
 10
4251.536851829007
 20
2289.232588934003
 30
0.0
 10
4251.536765619292
 20
2289.233164751545
 30
0.0
 10
4251.536678294943
 20
2289.233752867783
 30
0.0
 10
4251.536588826761
 20
2289.234365218442
 30
0.0
 10
4251.536498294642
 20
2289.234989851774
 30
0.0
 10
4251.536452283493
 20
2289.235309811395
 30
0.0
 10
4251.536314577562
 20
2289.236275088007
 30
0.0
 10
4251.536223158509
 20
2289.236925990739
 30
0.0
 10
4251.536132162264
 20
2289.237584333926
 30
0.0
  0
SPLINE
  5
16CA
330
1F
100
AcDbEntity
  8
SANINDUSA
100
AcDbSpline
210
0.0
220
0.0
230
1.0
 70
     8
 71
     3
 72
    10
 73
     6
 74
     0
 42
0.00000001
 43
0.0000000001
 40
0.0
 40
0.0
 40
0.0
 40
0.0
 40
0.2430958354906078
 40
0.7293077450512437
 40
1.0
 40
1.0
 40
1.0
 40
1.0
 10
4251.536132156212
 20
2289.237584330179
 30
0.0
 10
4251.535687653047
 20
2289.240887912379
 30
0.0
 10
4251.534354106545
 20
2289.250798934014
 30
0.0
 10
4251.532732905594
 20
2289.264417352901
 30
0.0
 10
4251.531781516667
 20
2289.274752684075
 30
0.0
 10
4251.531441270668
 20
2289.278448917009
 30
0.0
  0
SPLINE
  5
16CB
330
1F
100
AcDbEntity
  8
SANINDUSA
100
AcDbSpline
210
0.0
220
0.0
230
1.0
 70
     8
 71
     3
 72
    29
 73
    25
 74
     0
 42
0.00000001
 43
0.0000000001
 40
0.0
 40
0.0
 40
0.0
 40
0.0
 40
0.125000000000002
 40
0.125000000000002
 40
0.1875000000000031
 40
0.1875000000000031
 40
0.250000000000004
 40
0.250000000000004
 40
0.3750000000000061
 40
0.3750000000000061
 40
0.4375000000000071
 40
0.4375000000000071
 40
0.5000000000000081
 40
0.5000000000000081
 40
0.6250000000000063
 40
0.6250000000000063
 40
0.6875000000000055
 40
0.6875000000000055
 40
0.7500000000000046
 40
0.8125000000000037
 40
0.8125000000000037
 40
0.8750000000000028
 40
0.8750000000000028
 40
1.0
 40
1.0
 40
1.0
 40
1.0
 10
4251.537004490272
 20
2289.366993613579
 30
0.0
 10
4251.536339699742
 20
2289.366993613579
 30
0.0
 10
4251.53568608636
 20
2289.366927982759
 30
0.0
 10
4251.534721748018
 20
2289.36673510659
 30
0.0
 10
4251.534403002352
 20
2289.366654957836
 30
0.0
 10
4251.533771038475
 20
2289.366462203801
 30
0.0
 10
4251.533457122585
 20
2289.36634910484
 30
0.0
 10
4251.532544343399
 20
2289.365968155851
 30
0.0
 10
4251.53196732411
 20
2289.365657350163
 30
0.0
 10
4251.531148704849
 20
2289.365106496635
 30
0.0
 10
4251.530882620051
 20
2289.364907752764
 30
0.0
 10
4251.530371932932
 20
2289.364484958727
 30
0.0
 10
4251.530129012583
 20
2289.364262502783
 30
0.0
 10
4251.529436400716
 20
2289.363562955586
 30
0.0
 10
4251.52902250981
 20
2289.363053995253
 30
0.0
 10
4251.528475415581
 20
2289.362224910802
 30
0.0
 10
4251.528306204203
 20
2289.361938325791
 30
0.0
 10
4251.527999885488
 20
2289.36135567705
 30
0.0
 10
4251.52772368478
 20
2289.360760648534
 30
0.0
 10
4251.527506926211
 20
2289.36014118679
 30
0.0
 10
4251.527320364432
 20
2289.35950931289
 30
0.0
 10
4251.527241932863
 20
2289.359185595346
 30
0.0
 10
4251.52705642446
 20
2289.358209199725
 30
0.0
 10
4251.526997816501
 20
2289.357551392473
 30
0.0
 10
4251.527004928167
 20
2289.356886639119
 30
0.0
  0
SPLINE
  5
16CC
330
1F
100
AcDbEntity
  8
SANINDUSA
100
AcDbSpline
210
0.0
220
0.0
230
1.0
 70
     8
 71
     3
 72
    29
 73
    25
 74
     0
 42
0.00000001
 43
0.0000000001
 40
0.0
 40
0.0
 40
0.0
 40
0.0
 40
0.125000000000002
 40
0.125000000000002
 40
0.1875000000000031
 40
0.1875000000000031
 40
0.250000000000004
 40
0.250000000000004
 40
0.3750000000000061
 40
0.3750000000000061
 40
0.4375000000000071
 40
0.4375000000000071
 40
0.5000000000000081
 40
0.5000000000000081
 40
0.6250000000000063
 40
0.6250000000000063
 40
0.6875000000000055
 40
0.6875000000000055
 40
0.7500000000000046
 40
0.8125000000000037
 40
0.8125000000000037
 40
0.8750000000000028
 40
0.8750000000000028
 40
1.0
 40
1.0
 40
1.0
 40
1.0
 10
4251.88186866953
 20
2289.366993613579
 30
0.0
 10
4251.882533460061
 20
2289.366993613579
 30
0.0
 10
4251.883187073444
 20
2289.366927982759
 30
0.0
 10
4251.884151411785
 20
2289.36673510659
 30
0.0
 10
4251.884470157452
 20
2289.366654957836
 30
0.0
 10
4251.885102121328
 20
2289.366462203801
 30
0.0
 10
4251.885416037218
 20
2289.36634910484
 30
0.0
 10
4251.886328816404
 20
2289.365968155851
 30
0.0
 10
4251.886905835694
 20
2289.365657350163
 30
0.0
 10
4251.887724454954
 20
2289.365106496635
 30
0.0
 10
4251.887990539752
 20
2289.364907752764
 30
0.0
 10
4251.888501226871
 20
2289.364484958727
 30
0.0
 10
4251.888744147219
 20
2289.364262502783
 30
0.0
 10
4251.889436759088
 20
2289.363562955586
 30
0.0
 10
4251.889850649994
 20
2289.363053995253
 30
0.0
 10
4251.890397744223
 20
2289.362224910802
 30
0.0
 10
4251.890566955601
 20
2289.361938325791
 30
0.0
 10
4251.890873274315
 20
2289.36135567705
 30
0.0
 10
4251.891149475024
 20
2289.360760648534
 30
0.0
 10
4251.891366233592
 20
2289.36014118679
 30
0.0
 10
4251.891552795372
 20
2289.35950931289
 30
0.0
 10
4251.891631226941
 20
2289.359185595346
 30
0.0
 10
4251.891816735343
 20
2289.358209199725
 30
0.0
 10
4251.891875343302
 20
2289.357551392473
 30
0.0
 10
4251.891868231637
 20
2289.356886639119
 30
0.0
  0
SPLINE
  5
16EE
330
1F
100
AcDbEntity
  8
SANINDUSA
100
AcDbSpline
210
0.0
220
0.0
230
1.0
 70
     8
 71
     3
 72
    20
 73
    16
 74
     0
 42
0.00000001
 43
0.0000000001
 40
0.0
 40
0.0
 40
0.0
 40
0.0
 40
0.0645919427095603
 40
0.1291838717693195
 40
0.1940512739176645
 40
0.2589186386294569
 40
0.341384241695482
 40
0.4239210289932906
 40
0.5064578440658987
 40
0.5889233149525256
 40
0.6737826022060497
 40
0.7587195706484021
 40
0.8436564980154114
 40
0.9285157414876849
 40
1.0
 40
1.0
 40
1.0
 40
1.0
 10
4253.257733982819
 20
2289.257500361522
 30
0.0
 10
4253.256366420396
 20
2289.252376224412
 30
0.0
 10
4253.253631295836
 20
2289.242127951276
 30
0.0
 10
4253.248890906509
 20
2289.226913388897
 30
0.0
 10
4253.243685111002
 20
2289.211829939759
 30
0.0
 10
4253.237456093381
 20
2289.195556411021
 30
0.0
 10
4253.23005890329
 20
2289.178188098054
 30
0.0
 10
4253.221322848467
 20
2289.159832065374
 30
0.0
 10
4253.211834726449
 20
2289.141853255025
 30
0.0
 10
4253.201513093096
 20
2289.124118490011
 30
0.0
 10
4253.190341104949
 20
2289.106671966615
 30
0.0
 10
4253.178320605211
 20
2289.08954961717
 30
0.0
 10
4253.165570205337
 20
2289.072965858788
 30
0.0
 10
4253.152873011014
 20
2289.057749572554
 30
0.0
 10
4253.144173396392
 20
2289.048309737828
 30
0.0
 10
4253.140195709486
 20
2289.043993603309
 30
0.0
  0
LINE
  5
16EF
330
1F
100
AcDbEntity
  8
SANINDUSA
100
AcDbLine
 10
4252.882345718164
 20
2289.316784173121
 30
0.0
 11
4252.911889952439
 21
2289.321993615349
 31
0.0
  0
ARC
  5
1706
330
1F
100
AcDbEntity
  8
SANINDUSA
100
AcDbCircle
 10
4252.883557824126
 20
2289.264036182003
 30
0.0
 40
0.0050000000000001
100
AcDbArc
 50
26.2459832746937
 51
88.00000002228562
  0
LINE
  5
1707
330
1F
100
AcDbEntity
  8
SANINDUSA
100
AcDbLine
 10
4252.883732323367
 20
2289.269033137579
 30
0.0
 11
4252.800885439683
 21
2289.271926212926
 31
0.0
  0
ARC
  5
1708
330
1F
100
AcDbEntity
  8
SANINDUSA
100
AcDbCircle
 10
4252.800955237884
 20
2289.273924994686
 30
0.0
 40
0.002
100
AcDbArc
 50
180.0
 51
268.0000000222857
  0
LINE
  5
1709
330
1F
100
AcDbEntity
  8
SANINDUSA
100
AcDbLine
 10
4252.798955238257
 20
2289.273924995084
 30
0.0
 11
4252.798955238257
 21
2289.282493617256
 31
0.0
  0
ARC
  5
170A
330
1F
100
AcDbEntity
  8
SANINDUSA
100
AcDbCircle
 10
4252.800955237884
 20
2289.282493617136
 30
0.0
 40
0.002
100
AcDbArc
 50
90.0
 51
180.0
  0
LINE
  5
170B
330
1F
100
AcDbEntity
  8
SANINDUSA
100
AcDbLine
 10
4252.800955238584
 20
2289.284493613859
 30
0.0
 11
4252.8389552355
 21
2289.284493613859
 31
0.0
  0
LINE
  5
170C
330
1F
100
AcDbEntity
  8
SANINDUSA
100
AcDbLine
 10
4252.8389552355
 20
2289.284493613859
 30
0.0
 11
4252.8389552355
 21
2289.286993618925
 31
0.0
  0
LINE
  5
170D
330
1F
100
AcDbEntity
  8
SANINDUSA
100
AcDbLine
 10
4252.848955240864
 20
2289.286993618925
 30
0.0
 11
4252.8389552355
 21
2289.286993618925
 31
0.0
  0
LINE
  5
170E
330
1F
100
AcDbEntity
  8
SANINDUSA
100
AcDbLine
 10
4252.848955240864
 20
2289.281993616243
 30
0.0
 11
4252.848955240864
 21
2289.286993618925
 31
0.0
  0
LINE
  5
170F
330
1F
100
AcDbEntity
  8
SANINDUSA
100
AcDbLine
 10
4252.848955240864
 20
2289.281993616243
 30
0.0
 11
4252.881237220782
 21
2289.281993616243
 31
0.0
  0
SPLINE
  5
1710
330
1F
100
AcDbEntity
  8
SANINDUSA
100
AcDbSpline
210
0.0
220
0.0
230
1.0
 70
     8
 71
     3
 72
    16
 73
    12
 74
     0
 42
0.00000001
 43
0.0000000001
 40
0.0
 40
0.0
 40
0.0
 40
0.0
 40
0.0625000000000001
 40
0.0625000000000001
 40
0.1250000000000003
 40
0.1250000000000003
 40
0.25
 40
0.25
 40
0.4999999999999999
 40
0.4999999999999999
 40
1.0
 40
1.0
 40
1.0
 40
1.0
 10
4252.872497641896
 20
2289.31504769003
 30
0.0
 10
4252.872621809406
 20
2289.314343501087
 30
0.0
 10
4252.872745976917
 20
2289.313639312143
 30
0.0
 10
4252.872994311937
 20
2289.312230934256
 30
0.0
 10
4252.873118606898
 20
2289.311526769029
 30
0.0
 10
4252.873509001948
 20
2289.309417531657
 30
0.0
 10
4252.873786784598
 20
2289.308014633415
 30
0.0
 10
4252.874672826123
 20
2289.303815743963
 30
0.0
 10
4252.875333749767
 20
2289.301029552667
 30
0.0
 10
4252.87752929582
 20
2289.292710572189
 30
0.0
 10
4252.879257050591
 20
2289.287290155998
 30
0.0
 10
4252.881237218668
 20
2289.281993617137
 30
0.0
  0
SPLINE
  5
1711
330
1F
100
AcDbEntity
  8
SANINDUSA
100
AcDbSpline
210
0.0
220
0.0
230
1.0
 70
     8
 71
     3
 72
    29
 73
    25
 74
     0
 42
0.00000001
 43
0.0000000001
 40
0.0
 40
0.0
 40
0.0
 40
0.0
 40
0.1249999999999957
 40
0.1249999999999957
 40
0.1874999999999942
 40
0.1874999999999942
 40
0.2499999999999927
 40
0.2499999999999927
 40
0.3749999999999909
 40
0.3749999999999909
 40
0.4374999999999906
 40
0.4374999999999906
 40
0.4999999999999904
 40
0.4999999999999904
 40
0.6249999999999912
 40
0.6249999999999912
 40
0.6874999999999926
 40
0.6874999999999926
 40
0.749999999999994
 40
0.8124999999999953
 40
0.8124999999999953
 40
0.8749999999999968
 40
0.8749999999999968
 40
1.0
 40
1.0
 40
1.0
 40
1.0
 10
4252.872497641896
 20
2289.31504769003
 30
0.0
 10
4252.872382964931
 20
2289.315698055415
 30
0.0
 10
4252.872333969514
 20
2289.316348805328
 30
0.0
 10
4252.872354970486
 20
2289.317325483404
 30
0.0
 10
4252.872377836798
 20
2289.317651135649
 30
0.0
 10
4252.872456023871
 20
2289.318302630139
 30
0.0
 10
4252.872511727568
 20
2289.318629423326
 30
0.0
 10
4252.872724380583
 20
2289.319588995317
 30
0.0
 10
4252.872926831401
 20
2289.320207821574
 30
0.0
 10
4252.873320704419
 20
2289.32110501283
 30
0.0
 10
4252.873467680012
 20
2289.321399822228
 30
0.0
 10
4252.873790688791
 20
2289.321974352911
 30
0.0
 10
4252.873965096205
 20
2289.322251418105
 30
0.0
 10
4252.874525815134
 20
2289.323052971671
 30
0.0
 10
4252.874949268862
 20
2289.323548098243
 30
0.0
 10
4252.87566066768
 20
2289.324230535786
 30
0.0
 10
4252.875910638297
 20
2289.324447615332
 30
0.0
 10
4252.876425199306
 20
2289.324851917839
 30
0.0
 10
4252.87695698865
 20
2289.325229009107
 30
0.0
 10
4252.877522707739
 20
2289.325552510147
 30
0.0
 10
4252.878105619287
 20
2289.325848856611
 30
0.0
 10
4252.878407007482
 20
2289.325983949174
 30
0.0
 10
4252.879327774342
 20
2289.32634287878
 30
0.0
 10
4252.879959822446
 20
2289.32652004585
 30
0.0
 10
4252.880610205131
 20
2289.326634646374
 30
0.0
  0
LINE
  5
1712
330
1F
100
AcDbEntity
  8
SANINDUSA
100
AcDbLine
 10
4252.880610202272
 20
2289.326634645332
 30
0.0
 11
4252.900305342693
 21
2289.330105528106
 31
0.0
  0
LINE
  5
1713
330
1F
100
AcDbEntity
  8
SANINDUSA
100
AcDbLine
 10
4252.895740565676
 20
2289.355993617196
 30
0.0
 11
4252.900305342693
 21
2289.330105528106
 31
0.0
  0
LINE
  5
1714
330
1F
100
AcDbEntity
  8
SANINDUSA
100
AcDbLine
 10
4252.895740565676
 20
2289.355993617196
 30
0.0
 11
4252.808955238033
 21
2289.355993617196
 31
0.0
  0
LINE
  5
1715
330
1F
100
AcDbEntity
  8
SANINDUSA
100
AcDbLine
 10
4252.808955238033
 20
2289.355993617196
 30
0.0
 11
4252.808955238033
 21
2289.349493617062
 31
0.0
  0
LINE
  5
1716
330
1F
100
AcDbEntity
  8
SANINDUSA
100
AcDbLine
 10
4252.848955240864
 20
2289.349493617062
 30
0.0
 11
4252.808955238033
 21
2289.349493617062
 31
0.0
  0
LINE
  5
1717
330
1F
100
AcDbEntity
  8
SANINDUSA
100
AcDbLine
 10
4252.848955240864
 20
2289.336993617808
 30
0.0
 11
4252.848955240864
 21
2289.349493617062
 31
0.0
  0
LINE
  5
1718
330
1F
100
AcDbEntity
  8
SANINDUSA
100
AcDbLine
 10
4252.8389552355
 20
2289.336993617808
 30
0.0
 11
4252.848955240864
 21
2289.336993617808
 31
0.0
  0
LINE
  5
1719
330
1F
100
AcDbEntity
  8
SANINDUSA
100
AcDbLine
 10
4252.8389552355
 20
2289.336993617808
 30
0.0
 11
4252.8389552355
 21
2289.339493617286
 31
0.0
  0
LINE
  5
171A
330
1F
100
AcDbEntity
  8
SANINDUSA
100
AcDbLine
 10
4252.8389552355
 20
2289.339493617286
 30
0.0
 11
4252.800955238584
 21
2289.339493617286
 31
0.0
  0
ARC
  5
171B
330
1F
100
AcDbEntity
  8
SANINDUSA
100
AcDbCircle
 10
4252.800955237884
 20
2289.341493617137
 30
0.0
 40
0.002
100
AcDbArc
 50
180.0
 51
270.0
  0
LINE
  5
171C
330
1F
100
AcDbEntity
  8
SANINDUSA
100
AcDbLine
 10
4252.798955238257
 20
2289.341493617614
 30
0.0
 11
4252.798955238257
 21
2289.341993616764
 31
0.0
  0
ARC
  5
171D
330
1F
100
AcDbEntity
  8
SANINDUSA
100
AcDbCircle
 10
4252.793955237883
 20
2289.341993617137
 30
0.0
 40
0.0050000000000001
100
AcDbArc
 50
0.0
 51
90.0
  0
LINE
  5
171E
330
1F
100
AcDbEntity
  8
SANINDUSA
100
AcDbLine
 10
4252.775955237979
 20
2289.346993617584
 30
0.0
 11
4252.793955237438
 21
2289.346993617584
 31
0.0
  0
ARC
  5
171F
330
1F
100
AcDbEntity
  8
SANINDUSA
100
AcDbCircle
 10
4252.775955237884
 20
2289.348993617137
 30
0.0
 40
0.0020000000000002
100
AcDbArc
 50
180.0
 51
270.0
  0
LINE
  5
1720
330
1F
100
AcDbEntity
  8
SANINDUSA
100
AcDbLine
 10
4252.773955237884
 20
2289.348993617912
 30
0.0
 11
4252.773955237884
 21
2289.364993617042
 31
0.0
  0
ARC
  5
1721
330
1F
100
AcDbEntity
  8
SANINDUSA
100
AcDbCircle
 10
4252.775955237884
 20
2289.364993617137
 30
0.0
 40
0.0020000000000002
100
AcDbArc
 50
90.0
 51
180.0
  0
LINE
  5
1722
330
1F
100
AcDbEntity
  8
SANINDUSA
100
AcDbLine
 10
4252.897242438812
 20
2289.366993617137
 30
0.0
 11
4252.775955237979
 21
2289.366993617137
 31
0.0
  0
ARC
  5
1723
330
1F
100
AcDbEntity
  8
SANINDUSA
100
AcDbCircle
 10
4252.897242440836
 20
2289.358993617137
 30
0.0
 40
0.008
100
AcDbArc
 50
9.999999996698591
 51
90.0
  0
LINE
  5
1724
330
1F
100
AcDbEntity
  8
SANINDUSA
100
AcDbLine
 10
4252.905120906253
 20
2289.360382802655
 30
0.0
 11
4252.911889937538
 21
2289.321993667503
 31
0.0
  0
SPLINE
  5
1725
330
1F
100
AcDbEntity
  8
SANINDUSA
100
AcDbSpline
210
0.0
220
0.0
230
1.0
 70
     8
 71
     3
 72
    12
 73
     8
 74
     0
 42
0.00000001
 43
0.0000000001
 40
0.1751793954761574
 40
0.1751793954761574
 40
0.1751793954761574
 40
0.1751793954761574
 40
0.1876290246409378
 40
0.1876290246409378
 40
0.4412624232135202
 40
0.4412624232135202
 40
0.8964410708717242
 40
0.8964410708717242
 40
0.8964410708717242
 40
0.8964410708717242
 10
4252.882345719426
 20
2289.316784171807
 30
0.0
 10
4252.882509499705
 20
2289.315855327687
 30
0.0
 10
4252.882673279984
 20
2289.314926483568
 30
0.0
 10
4252.886173717787
 20
2289.295074514294
 30
0.0
 10
4252.892782023894
 20
2289.277256247739
 30
0.0
 10
4252.91880259102
 20
2289.232319273806
 30
0.0
 10
4252.944216535735
 20
2289.209061307616
 30
0.0
 10
4252.975045698388
 20
2289.195065158809
 30
0.0
  0
SPLINE
  5
1726
330
1F
100
AcDbEntity
  8
SANINDUSA
100
AcDbSpline
210
0.0
220
0.0
230
1.0
 70
     8
 71
     3
 72
    22
 73
    18
 74
     0
 42
0.00000001
 43
0.0000000001
 40
0.0
 40
0.0
 40
0.0
 40
0.0
 40
0.2499999999999996
 40
0.2499999999999996
 40
0.3125000000000004
 40
0.3125000000000004
 40
0.3750000000000013
 40
0.3750000000000013
 40
0.5000000000000011
 40
0.5000000000000011
 40
0.6250000000000009
 40
0.6250000000000009
 40
0.6875000000000004
 40
0.6875000000000004
 40
0.7499999999999999
 40
0.7499999999999999
 40
1.0
 40
1.0
 40
1.0
 40
1.0
 10
4252.975045698388
 20
2289.195065158809
 30
0.0
 10
4252.977230388484
 20
2289.194073330129
 30
0.0
 10
4252.979253783381
 20
2289.192843112692
 30
0.0
 10
4252.981588499264
 20
2289.191017835591
 30
0.0
 10
4252.982045585104
 20
2289.190638211367
 30
0.0
 10
4252.982939691932
 20
2289.189849307756
 30
0.0
 10
4252.98337813432
 20
2289.189438562765
 30
0.0
 10
4252.984649925734
 20
2289.188173379989
 30
0.0
 10
4252.985439930557
 20
2289.187286976384
 30
0.0
 10
4252.986907896151
 20
2289.185430995342
 30
0.0
 10
4252.987585848142
 20
2289.184461411386
 30
0.0
 10
4252.988517871414
 20
2289.182944008007
 30
0.0
 10
4252.988814358626
 20
2289.182427675266
 30
0.0
 10
4252.989378353478
 20
2289.181373497334
 30
0.0
 10
4252.989645848024
 20
2289.180835353163
 30
0.0
 10
4252.990894169201
 20
2289.178123547317
 30
0.0
 10
4252.991625649538
 20
2289.175862131469
 30
0.0
 10
4252.992086235365
 20
2289.173507464625
 30
0.0
  0
LINE
  5
1727
330
1F
100
AcDbEntity
  8
SANINDUSA
100
AcDbLine
 10
4253.009986844677
 20
2289.081993620713
 30
0.0
 11
4252.992086228747
 21
2289.173507463058
 31
0.0
  0
LINE
  5
1728
330
1F
100
AcDbEntity
  8
SANINDUSA
100
AcDbLine
 10
4252.999797341246
 20
2289.081993620713
 30
0.0
 11
4253.009986844677
 21
2289.081993620713
 31
0.0
  0
LINE
  5
1729
330
1F
100
AcDbEntity
  8
SANINDUSA
100
AcDbLine
 10
4252.98227224972
 20
2289.17158763988
 30
0.0
 11
4252.999797341246
 21
2289.081993620713
 31
0.0
  0
SPLINE
  5
172A
330
1F
100
AcDbEntity
  8
SANINDUSA
100
AcDbSpline
210
0.0
220
0.0
230
1.0
 70
     8
 71
     3
 72
    18
 73
    14
 74
     0
 42
0.00000001
 43
0.0000000001
 40
0.0
 40
0.0
 40
0.0
 40
0.0
 40
0.2499999999999983
 40
0.2499999999999983
 40
0.374999999999998
 40
0.374999999999998
 40
0.4374999999999977
 40
0.4374999999999977
 40
0.4999999999999976
 40
0.4999999999999976
 40
0.7499999999999988
 40
0.7499999999999988
 40
0.8578993369277039
 40
0.8578993369277039
 40
0.8578993369277039
 40
0.8578993369277039
 10
4252.920934192158
 20
2289.220484959153
 30
0.0
 10
4252.925120295773
 20
2289.216321743304
 30
0.0
 10
4252.929515140805
 20
2289.212379282485
 30
0.0
 10
4252.936423478951
 20
2289.206799852539
 30
0.0
 10
4252.938779043757
 20
2289.204995865921
 30
0.0
 10
4252.94239293531
 20
2289.202375065872
 30
0.0
 10
4252.943610996996
 20
2289.201515670024
 30
0.0
 10
4252.94607429886
 20
2289.199825621013
 30
0.0
 10
4252.947320737953
 20
2289.198994246267
 30
0.0
 10
4252.95358739312
 20
2289.194931991734
 30
0.0
 10
4252.958733553674
 20
2289.191967824362
 30
0.0
 10
4252.966285931626
 20
2289.188122451639
 30
0.0
 10
4252.968586916255
 20
2289.18701496577
 30
0.0
 10
4252.970912031021
 20
2289.185959366589
 30
0.0
  0
LINE
  5
172B
330
1F
100
AcDbEntity
  8
SANINDUSA
100
AcDbLine
 10
4252.920934197326
 20
2289.220484953244
 30
0.0
 11
4252.820955236275
 21
2289.216993611177
 31
0.0
  0
LINE
  5
172C
330
1F
100
AcDbEntity
  8
SANINDUSA
100
AcDbLine
 10
4252.82060624363
 20
2289.226987521966
 30
0.0
 11
4252.820955236275
 21
2289.216993611177
 31
0.0
  0
LINE
  5
172D
330
1F
100
AcDbEntity
  8
SANINDUSA
100
AcDbLine
 10
4252.901875269432
 20
2289.22982550772
 30
0.0
 11
4252.82060624363
 21
2289.226987521966
 31
0.0
  0
ARC
  5
172E
330
1F
100
AcDbEntity
  8
SANINDUSA
100
AcDbCircle
 10
4252.901700773617
 20
2289.234822456542
 30
0.0
 40
0.0050000000000001
100
AcDbArc
 50
271.9999999777144
 51
37.4327521392312
  0
SPLINE
  5
172F
330
1F
100
AcDbEntity
  8
SANINDUSA
100
AcDbSpline
210
0.0
220
0.0
230
1.0
 70
     8
 71
     3
 72
     8
 73
     4
 74
     0
 42
0.00000001
 43
0.0000000001
 40
0.0
 40
0.0
 40
0.0
 40
0.0
 40
1.0
 40
1.0
 40
1.0
 40
1.0
 10
4252.888042342856
 20
2289.266247311072
 30
0.0
 10
4252.892999130075
 20
2289.256194164275
 30
0.0
 10
4252.898911936618
 20
2289.246691771953
 30
0.0
 10
4252.905671110092
 20
2289.237861605811
 30
0.0
  0
LWPOLYLINE
  5
1730
330
1F
100
AcDbEntity
  8
SANINDUSA
100
AcDbPolyline
 90
        3
 70
   128
 43
0.0
 10
4253.236174803991
 20
2289.321993615349
 10
4253.238714528102
 20
2289.336397182067
 10
4253.242169898768
 20
2289.355993617196
  0
ARC
  5
1731
330
1F
100
AcDbEntity
  8
SANINDUSA
100
AcDbCircle
 10
4253.273602296549
 20
2289.356993617137
 30
0.0
 40
0.01
100
AcDbArc
 50
357.411246300869
 51
90.0
  0
LINE
  5
1732
330
1F
100
AcDbEntity
  8
SANINDUSA
100
AcDbLine
 10
4252.82060624363
 20
2289.126999702175
 30
0.0
 11
4252.82060624363
 21
2289.226987521966
 31
0.0
  0
LINE
  5
1733
330
1F
100
AcDbEntity
  8
SANINDUSA
100
AcDbLine
 10
4252.82060624363
 20
2289.126999702175
 30
0.0
 11
4252.898703706283
 21
2289.124272491653
 31
0.0
  0
SPLINE
  5
1736
330
1F
100
AcDbEntity
  8
SANINDUSA
100
AcDbSpline
210
0.0
220
0.0
230
1.0
 70
     8
 71
     3
 72
    12
 73
     8
 74
     0
 42
0.00000001
 43
0.0000000001
 40
0.0
 40
0.0
 40
0.0
 40
0.0
 40
0.2415858006267773
 40
0.483170494564933
 40
0.7247547558580071
 40
0.9663396980289469
 40
1.0
 40
1.0
 40
1.0
 40
1.0
 10
4253.240668040533
 20
2289.366993617137
 30
0.0
 10
4253.239768518265
 20
2289.366905195269
 30
0.0
 10
4253.23796947785
 20
2289.366728351939
 30
0.0
 10
4253.235573986597
 20
2289.365348869675
 30
0.0
 10
4253.23375752106
 20
2289.3633196681
 30
0.0
 10
4253.233005200743
 20
2289.361507004453
 30
0.0
 10
4253.232813055967
 20
2289.360505302793
 30
0.0
 10
4253.232789558191
 20
2289.360382802655
 30
0.0
  0
SPLINE
  5
1737
330
1F
100
AcDbEntity
  8
SANINDUSA
100
AcDbSpline
210
0.0
220
0.0
230
1.0
 70
    24
 71
     3
 72
    53
 73
    49
 74
     0
 42
0.00000001
 43
0.0000000001
 40
0.0
 40
0.0
 40
0.0
 40
0.0
 40
0.0625000000000004
 40
0.0625000000000004
 40
0.1250000000000009
 40
0.1250000000000009
 40
0.1406250000000009
 40
0.1406250000000009
 40
0.156250000000001
 40
0.156250000000001
 40
0.187500000000001
 40
0.187500000000001
 40
0.2500000000000007
 40
0.2500000000000007
 40
0.3125000000000004
 40
0.3125000000000004
 40
0.3437500000000003
 40
0.3437500000000003
 40
0.3593750000000003
 40
0.3593750000000003
 40
0.3750000000000002
 40
0.3750000000000002
 40
0.4375000000000001
 40
0.4375000000000001
 40
0.5
 40
0.5624999999999997
 40
0.5624999999999997
 40
0.5781249999999997
 40
0.5781249999999997
 40
0.5937499999999997
 40
0.5937499999999997
 40
0.6250000000000002
 40
0.6250000000000002
 40
0.6875000000000007
 40
0.6875000000000007
 40
0.750000000000001
 40
0.750000000000001
 40
0.7812500000000011
 40
0.7812500000000011
 40
0.7968750000000013
 40
0.7968750000000013
 40
0.8125000000000014
 40
0.8125000000000014
 40
0.8750000000000008
 40
0.8750000000000008
 40
0.9375000000000003
 40
0.9375000000000003
 40
1.0
 40
1.0
 40
1.0
 40
1.0
 10
4253.240668034933
 20
2289.366993617137
 30
0.0
 10
4253.240668052091
 20
2289.366993617137
 30
0.0
 10
4253.240446077074
 20
2289.366993617137
 30
0.0
 10
4253.239570719784
 20
2289.366993617137
 30
0.0
 10
4253.238917208476
 20
2289.366993617137
 30
0.0
 10
4253.237823849394
 20
2289.366993617137
 30
0.0
 10
4253.237591059734
 20
2289.366993617137
 30
0.0
 10
4253.237099271215
 20
2289.366993617137
 30
0.0
 10
4253.236840310228
 20
2289.366993617137
 30
0.0
 10
4253.236024929303
 20
2289.366993617137
 30
0.0
 10
4253.235429932739
 20
2289.366993617137
 30
0.0
 10
4253.23349486383
 20
2289.366993617137
 30
0.0
 10
4253.232004975575
 20
2289.366993617137
 30
0.0
 10
4253.22862401025
 20
2289.366993617137
 30
0.0
 10
4253.226733115537
 20
2289.366993617137
 30
0.0
 10
4253.223594167785
 20
2289.366993617137
 30
0.0
 10
4253.222497745481
 20
2289.366993617137
 30
0.0
 10
4253.220775567387
 20
2289.366993617137
 30
0.0
 10
4253.220187842173
 20
2289.366993617137
 30
0.0
 10
4253.218992314779
 20
2289.366993617137
 30
0.0
 10
4253.218384015288
 20
2289.366993617137
 30
0.0
 10
4253.215290438549
 20
2289.366993617137
 30
0.0
 10
4253.212649025024
 20
2289.366993617137
 30
0.0
 10
4253.207043467156
 20
2289.366993617137
 30
0.0
 10
4253.201117815664
 20
2289.366993617137
 30
0.0
 10
4253.194539714072
 20
2289.366993617137
 30
0.0
 10
4253.190218804399
 20
2289.366993617137
 30
0.0
 10
4253.189343947708
 20
2289.366993617137
 30
0.0
 10
4253.187583123484
 20
2289.366993617137
 30
0.0
 10
4253.186695904079
 20
2289.366993617137
 30
0.0
 10
4253.184014026598
 20
2289.366993617137
 30
0.0
 10
4253.1821990947
 20
2289.366993617137
 30
0.0
 10
4253.176674031329
 20
2289.366993617137
 30
0.0
 10
4253.172883785378
 20
2289.366993617137
 30
0.0
 10
4253.165092171217
 20
2289.366993617137
 30
0.0
 10
4253.161091646677
 20
2289.366993617137
 30
0.0
 10
4253.15492911146
 20
2289.366993617137
 30
0.0
 10
4253.152847956418
 20
2289.366993617137
 30
0.0
 10
4253.149684830396
 20
2289.366993617137
 30
0.0
 10
4253.148625188701
 20
2289.366993617137
 30
0.0
 10
4253.146503376696
 20
2289.366993617137
 30
0.0
 10
4253.145440031118
 20
2289.366993617137
 30
0.0
 10
4253.140111267991
 20
2289.366993617137
 30
0.0
 10
4253.135809999998
 20
2289.366993617137
 30
0.0
 10
4253.127131943385
 20
2289.366993617137
 30
0.0
 10
4253.122755158961
 20
2289.366993617137
 30
0.0
 10
4253.113925822126
 20
2289.366993617137
 30
0.0
 10
4253.109473413272
 20
2289.366993617137
 30
0.0
 10
4253.104981663017
 20
2289.366993617137
 30
0.0
  0
LWPOLYLINE
  5
1738
330
1F
100
AcDbEntity
  8
SANINDUSA
100
AcDbPolyline
 90
        3
 70
   128
 43
0.0
 10
4253.226020526905
 20
2289.321993615349
 10
4253.228360664863
 20
2289.335265230258
 10
4253.232789558191
 20
2289.360382802655
  0
ARC
  5
173B
330
1F
100
AcDbEntity
  8
SANINDUSA
100
AcDbCircle
 10
4253.143104662999
 20
2289.033993617137
 30
0.0
 40
0.0019999999999999
100
AcDbArc
 50
270.0
 51
316.1277122109137
  0
ARC
  5
173C
330
1F
100
AcDbEntity
  8
SANINDUSA
100
AcDbCircle
 10
4253.028342216569
 20
2289.085071233374
 30
0.0
 40
0.0800000000000003
100
AcDbArc
 50
329.1047440615788
 51
345.0000000097778
  0
ARC
  5
173D
330
1F
100
AcDbEntity
  8
SANINDUSA
100
AcDbCircle
 10
4253.153237320066
 20
2289.164815774724
 30
0.0
 40
0.0200000000000001
100
AcDbArc
 50
105.0123342901019
 51
165.0000000097778
  0
LINE
  5
173E
330
1F
100
AcDbEntity
  8
SANINDUSA
100
AcDbLine
 10
4253.133918803949
 20
2289.169992159923
 30
0.0
 11
4253.105616283436
 21
2289.064365696033
 31
0.0
  0
SPLINE
  5
173F
330
1F
100
AcDbEntity
  8
SANINDUSA
100
AcDbSpline
210
0.0
220
0.0
230
1.0
 70
     8
 71
     3
 72
    12
 73
     8
 74
     0
 42
0.00000001
 43
0.0000000001
 40
0.152380652264057
 40
0.152380652264057
 40
0.152380652264057
 40
0.152380652264057
 40
0.5313185035161531
 40
0.5313185035161531
 40
0.7849519020887355
 40
0.7849519020887355
 40
0.820200274465616
 40
0.820200274465616
 40
0.820200274465616
 40
0.820200274465616
 10
4253.145466510743
 20
2289.193791877334
 30
0.0
 10
4253.178614983601
 20
2289.202681632639
 30
0.0
 10
4253.209199919221
 20
2289.220030428491
 30
0.0
 10
4253.250662569383
 20
2289.26088375334
 30
0.0
 10
4253.262099321425
 20
2289.28170551641
 30
0.0
 10
4253.267738743452
 20
2289.30752066344
 30
0.0
 10
4253.268301588927
 20
2289.310706144918
 30
0.0
 10
4253.268735694208
 20
2289.313920258426
 30
0.0
  0
SPLINE
  5
1740
330
1F
100
AcDbEntity
  8
SANINDUSA
100
AcDbSpline
210
0.0
220
0.0
230
1.0
 70
     8
 71
     3
 72
     8
 73
     4
 74
     0
 42
0.00000001
 43
0.0000000001
 40
0.0
 40
0.0
 40
0.0
 40
0.0
 40
1.0
 40
1.0
 40
1.0
 40
1.0
 10
4253.272554942035
 20
2289.355993617137
 30
0.0
 10
4253.27188819166
 20
2289.341914124888
 30
0.0
 10
4253.270615291952
 20
2289.327889655382
 30
0.0
 10
4253.268735694208
 20
2289.313920258426
 30
0.0
  0
LINE
  5
1741
330
1F
100
AcDbEntity
  8
SANINDUSA
100
AcDbLine
 10
4253.226020526905
 20
2289.321993615349
 30
0.0
 11
4253.236174803991
 21
2289.321993615349
 31
0.0
  0
SPLINE
  5
1742
330
1F
100
AcDbEntity
  8
SANINDUSA
100
AcDbSpline
210
0.0
220
0.0
230
1.0
 70
     8
 71
     3
 72
    24
 73
    20
 74
     0
 42
0.00000001
 43
0.0000000001
 40
0.0
 40
0.0
 40
0.0
 40
0.0
 40
0.056929779577608
 40
0.1139075581718097
 40
0.1708853000999794
 40
0.2278150359111801
 40
0.2863544163986084
 40
0.3449459782629316
 40
0.403537580814305
 40
0.4620769963205151
 40
0.5197309300836698
 40
0.5774347166191377
 40
0.6351384511307768
 40
0.692792340990291
 40
0.7521197799566832
 40
0.8115015327940152
 40
0.870883389092889
 40
0.9302107952650297
 40
1.0
 40
1.0
 40
1.0
 40
1.0
 10
4253.283592116852
 20
2289.356541948263
 30
0.0
 10
4253.283201953283
 20
2289.349716197451
 30
0.0
 10
4253.282421297188
 20
2289.336058940852
 30
0.0
 10
4253.280185365318
 20
2289.315653023741
 30
0.0
 10
4253.277177466514
 20
2289.295350901428
 30
0.0
 10
4253.273288493763
 20
2289.275006112897
 30
0.0
 10
4253.268510976909
 20
2289.254652590408
 30
0.0
 10
4253.262825249937
 20
2289.234326404921
 30
0.0
 10
4253.25629047498
 20
2289.214257147302
 30
0.0
 10
4253.24895546231
 20
2289.194586358064
 30
0.0
 10
4253.240840274329
 20
2289.175340309705
 30
0.0
 10
4253.231976640384
 20
2289.156538247991
 30
0.0
 10
4253.222342200959
 20
2289.138119289777
 30
0.0
 10
4253.211854666732
 20
2289.119946697255
 30
0.0
 10
4253.200496521155
 20
2289.102065724598
 30
0.0
 10
4253.188269925363
 20
2289.08451259456
 30
0.0
 10
4253.175293212392
 20
2289.067509318326
 30
0.0
 10
4253.160854698475
 20
2289.050064044019
 30
0.0
 10
4253.150268440965
 20
2289.038732404908
 30
0.0
 10
4253.144546431322
 20
2289.032607506831
 30
0.0
  0
LINE
  5
1743
330
1F
100
AcDbEntity
  8
SANINDUSA
100
AcDbLine
 10
4253.128955227156
 20
2289.031993608793
 30
0.0
 11
4253.128955227156
 21
2289.033993612845
 31
0.0
  0
LINE
  5
1744
330
1F
100
AcDbEntity
  8
SANINDUSA
100
AcDbLine
 10
4253.089913946409
 20
2289.033993612845
 30
0.0
 11
4253.128955227156
 21
2289.033993612845
 31
0.0
  0
ARC
  5
1745
330
1F
100
AcDbEntity
  8
SANINDUSA
100
AcDbCircle
 10
4253.028342216569
 20
2289.085071233374
 30
0.0
 40
0.0800000000000003
100
AcDbArc
 50
279.9406037705845
 51
320.3221592466324
  0
ARC
  5
1746
330
1F
100
AcDbEntity
  8
SANINDUSA
100
AcDbCircle
 10
4252.992953645876
 20
2289.286993617137
 30
0.0
 40
0.2850000000000001
100
AcDbArc
 50
266.4305117759671
 51
279.9406037705845
  0
ARC
  5
1747
330
1F
100
AcDbEntity
  8
SANINDUSA
100
AcDbCircle
 10
4252.977700183299
 20
2289.042468911065
 30
0.0
 40
0.04
100
AcDbArc
 50
200.000000000605
 51
266.4305117759671
  0
ARC
  5
1748
330
1F
100
AcDbEntity
  8
SANINDUSA
100
AcDbCircle
 10
4252.898354713744
 20
2289.114278576995
 30
0.0
 40
0.01
100
AcDbArc
 50
20.00000000060502
 51
88.00000002228562
  0
LINE
  5
1749
330
1F
100
AcDbEntity
  8
SANINDUSA
100
AcDbLine
 10
4252.820955236275
 20
2289.136993612965
 30
0.0
 11
4252.82060624363
 21
2289.126999702175
 31
0.0
  0
LINE
  5
174A
330
1F
100
AcDbEntity
  8
SANINDUSA
100
AcDbLine
 10
4252.820955236275
 20
2289.136993612965
 30
0.0
 11
4252.899052706379
 21
2289.134266387542
 31
0.0
  0
ARC
  5
174B
330
1F
100
AcDbEntity
  8
SANINDUSA
100
AcDbCircle
 10
4252.898354713744
 20
2289.114278576995
 30
0.0
 40
0.0200000000000001
100
AcDbArc
 50
20.00000000060502
 51
88.00000002228562
  0
LINE
  5
174C
330
1F
100
AcDbEntity
  8
SANINDUSA
100
AcDbLine
 10
4252.949509409089
 20
2289.032208304723
 30
0.0
 11
4252.917148572225
 21
2289.121118973811
 31
0.0
  0
ARC
  5
174D
330
1F
100
AcDbEntity
  8
SANINDUSA
100
AcDbCircle
 10
4252.977700183299
 20
2289.042468911065
 30
0.0
 40
0.03
100
AcDbArc
 50
200.000000000605
 51
266.4305117759671
  0
ARC
  5
174E
330
1F
100
AcDbEntity
  8
SANINDUSA
100
AcDbCircle
 10
4252.992953645876
 20
2289.286993617137
 30
0.0
 40
0.275
100
AcDbArc
 50
266.4305117759671
 51
279.9406037705845
  0
ARC
  5
174F
330
1F
100
AcDbEntity
  8
SANINDUSA
100
AcDbCircle
 10
4253.028342216569
 20
2289.085071233374
 30
0.0
 40
0.0700000000000002
100
AcDbArc
 50
279.9406037705845
 51
345.0000000097778
  0
LINE
  5
1750
330
1F
100
AcDbEntity
  8
SANINDUSA
100
AcDbLine
 10
4253.124259543437
 20
2289.17258034261
 30
0.0
 11
4253.095957022924
 21
2289.066953908522
 31
0.0
  0
ARC
  5
1751
330
1F
100
AcDbEntity
  8
SANINDUSA
100
AcDbCircle
 10
4253.153237320066
 20
2289.164815774724
 30
0.0
 40
0.0300000000000001
100
AcDbArc
 50
105.0123342901019
 51
165.0000000097778
  0
LINE
  5
1752
330
1F
100
AcDbEntity
  8
SANINDUSA
100
AcDbLine
 10
4252.94011248352
 20
2289.028788100798
 30
0.0
 11
4252.907751646657
 21
2289.117698784788
 31
0.0
  0
LINE
  5
1753
330
1F
100
AcDbEntity
  8
SANINDUSA
100
AcDbLine
 10
4253.128955227156
 20
2289.031993608793
 30
0.0
 11
4253.14310465457
 21
2289.031993608793
 31
0.0
  0
SPLINE
  5
1754
330
1F
100
AcDbEntity
  8
SANINDUSA
100
AcDbSpline
210
0.0
220
0.0
230
1.0
 70
     8
 71
     3
 72
    22
 73
    18
 74
     0
 42
0.00000001
 43
0.0000000001
 40
0.0
 40
0.0
 40
0.0
 40
0.0
 40
0.1250000000000451
 40
0.1250000000000451
 40
0.1875000000000674
 40
0.1875000000000674
 40
0.1894531250000674
 40
0.1894531250000674
 40
0.1914062500000675
 40
0.1953125000000666
 40
0.2031250000000663
 40
0.2187500000000653
 40
0.2500000000000631
 40
0.2500000000000631
 40
0.5000000000000422
 40
0.5000000000000422
 40
1.0
 40
1.0
 40
1.0
 40
1.0
 10
4253.257733979427
 20
2289.257500364747
 30
0.0
 10
4253.254526330844
 20
2289.252724276233
 30
0.0
 10
4253.250994924602
 20
2289.24815118904
 30
0.0
 10
4253.24523811865
 20
2289.24164785486
 30
0.0
 10
4253.243242573177
 20
2289.23953946582
 30
0.0
 10
4253.241107949254
 20
2289.237430923819
 30
0.0
 10
4253.241043586145
 20
2289.237367498079
 30
0.0
 10
4253.240917972385
 20
2289.237243855218
 30
0.0
 10
4253.240729446735
 20
2289.237058520832
 30
0.0
 10
4253.240288819481
 20
2289.236626983706
 30
0.0
 10
4253.239404636624
 20
2289.235767551981
 30
0.0
 10
4253.237624621026
 20
2289.234063286065
 30
0.0
 10
4253.236079139855
 20
2289.232627604956
 30
0.0
 10
4253.226728978993
 20
2289.22411473854
 30
0.0
 10
4253.217868297425
 20
2289.217267649448
 30
0.0
 10
4253.18993347682
 20
2289.199010954729
 30
0.0
 10
4253.169506715866
 20
2289.189885618737
 30
0.0
 10
4253.148056780517
 20
2289.184133176464
 30
0.0
  0
LINE
  5
1755
330
1F
100
AcDbEntity
  8
SANINDUSA
100
AcDbLine
 10
4253.27360228898
 20
2289.366993617137
 30
0.0
 11
4253.240668040533
 21
2289.366993617137
 31
0.0
  0
LINE
  5
1756
330
1F
100
AcDbEntity
  8
SANINDUSA
100
AcDbLine
 10
4253.272554945964
 20
2289.355993617196
 30
0.0
 11
4253.242169898768
 21
2289.355993617196
 31
0.0
  0
LINE
  5
1757
330
1F
100
AcDbEntity
  8
SANINDUSA
100
AcDbLine
 10
4253.140195709486
 20
2289.043993603309
 30
0.0
 11
4253.096990805883
 21
2289.043993603309
 31
0.0
  0
SPLINE
  5
1761
330
1F
100
AcDbEntity
  8
SANINDUSA
100
AcDbSpline
210
0.0
220
0.0
230
1.0
 70
    24
 71
     3
 72
    18
 73
    14
 74
     0
 42
0.00000001
 43
0.0000000001
 40
0.0
 40
0.0
 40
0.0
 40
0.0
 40
0.0937464837187803
 40
0.1874656067088898
 40
0.279701570042722
 40
0.3719608391902186
 40
0.4636243592219821
 40
0.5552485869770503
 40
0.647091500747804
 40
0.7389762965373872
 40
0.8319268848019953
 40
0.924853272037064
 40
1.0
 40
1.0
 40
1.0
 40
1.0
 10
4253.128955227156
 20
2289.031993608793
 30
0.0
 10
4253.12888085489
 20
2289.031993608793
 30
0.0
 10
4253.128732132067
 20
2289.031993608793
 30
0.0
 10
4253.127529177805
 20
2289.031993608793
 30
0.0
 10
4253.125640688101
 20
2289.031993608793
 30
0.0
 10
4253.123023162459
 20
2289.031993608793
 30
0.0
 10
4253.119720207873
 20
2289.031993608793
 30
0.0
 10
4253.115746777359
 20
2289.031993608793
 30
0.0
 10
4253.111131533541
 20
2289.031993608793
 30
0.0
 10
4253.105885635052
 20
2289.031993608793
 30
0.0
 10
4253.100036733527
 20
2289.031993608793
 30
0.0
 10
4253.094088037826
 20
2289.031993608793
 30
0.0
 10
4253.089893527667
 20
2289.031993608793
 30
0.0
 10
4253.088018131275
 20
2289.031993608793
 30
0.0
  0
ARC
  5
1767
330
1F
100
AcDbEntity
  8
SANINDUSA
100
AcDbCircle
 10
4252.775955237884
 20
2289.065183642013
 30
0.0
 40
0.0020000000000002
100
AcDbArc
 50
95.71059313490705
 51
180.0
  0
LINE
  5
1768
330
1F
100
AcDbEntity
  8
SANINDUSA
100
AcDbLine
 10
4252.821460724641
 20
2289.071744155009
 30
0.0
 11
4252.77575623041
 21
2289.067173730453
 31
0.0
  0
LINE
  5
1769
330
1F
100
AcDbEntity
  8
SANINDUSA
100
AcDbLine
 10
4252.812477710588
 20
2289.060795983411
 30
0.0
 11
4252.783955237883
 21
2289.057943751659
 31
0.0
  0
ARC
  5
176A
330
1F
100
AcDbEntity
  8
SANINDUSA
100
AcDbCircle
 10
4252.821659732742
 20
2289.069754091499
 30
0.0
 40
0.002
100
AcDbArc
 50
352.8749836446348
 51
95.71059313490705
  0
LINE
  5
176B
330
1F
100
AcDbEntity
  8
SANINDUSA
100
AcDbLine
 10
4252.819205236454
 20
2289.033993612845
 30
0.0
 11
4252.823644288648
 21
2289.0695060304
 31
0.0
  0
LINE
  5
176C
330
1F
100
AcDbEntity
  8
SANINDUSA
100
AcDbLine
 10
4252.810377414268
 20
2289.043993612845
 30
0.0
 11
4252.812477710588
 21
2289.060795983411
 31
0.0
  0
LINE
  5
176D
330
1F
100
AcDbEntity
  8
SANINDUSA
100
AcDbLine
 10
4252.773955237884
 20
2289.033993612845
 30
0.0
 11
4252.773955237884
 21
2289.065183650572
 31
0.0
  0
LINE
  5
176E
330
1F
100
AcDbEntity
  8
SANINDUSA
100
AcDbLine
 10
4252.783955237883
 20
2289.043993612845
 30
0.0
 11
4252.783955237883
 21
2289.057943751659
 31
0.0
  0
LINE
  5
176F
330
1F
100
AcDbEntity
  8
SANINDUSA
100
AcDbLine
 10
4252.773955237884
 20
2289.033993612845
 30
0.0
 11
4252.819205236454
 21
2289.033993612845
 31
0.0
  0
LINE
  5
1770
330
1F
100
AcDbEntity
  8
SANINDUSA
100
AcDbLine
 10
4252.783955237883
 20
2289.043993612845
 30
0.0
 11
4252.810377414268
 21
2289.043993612845
 31
0.0
  0
LINE
  5
177A
330
1F
100
AcDbEntity
  8
SANINDUSA
100
AcDbLine
 10
4252.8389552355
 20
2289.286993618925
 30
0.0
 11
4252.8389552355
 21
2289.336993617808
 31
0.0
  0
LINE
  5
177B
330
1F
100
AcDbEntity
  8
SANINDUSA
100
AcDbLine
 10
4252.848955240864
 20
2289.286993618925
 30
0.0
 11
4252.848955240864
 21
2289.336993617808
 31
0.0
  0
LINE
  5
177C
330
1F
100
AcDbEntity
  8
SANINDUSA
100
AcDbLine
 10
4252.798955238257
 20
2289.282493617256
 30
0.0
 11
4252.798955238257
 21
2289.341493617614
 31
0.0
  0
LINE
  5
177F
330
1F
100
AcDbEntity
  8
SANINDUSA
100
AcDbLine
 10
4252.897242438812
 20
2289.366993617137
 30
0.0
 11
4253.035519880075
 21
2289.366993617137
 31
0.0
  0
LINE
  5
17B4
330
1F
100
AcDbEntity
  8
SANINDUSA
100
AcDbLine
 10
4252.773955237884
 20
2289.286316458007
 30
0.0
 11
4252.773955237884
 21
2289.24617323639
 31
0.0
  0
LINE
  5
17B5
330
1F
100
AcDbEntity
  8
SANINDUSA
100
AcDbLine
 10
4252.773955237884
 20
2289.348993617137
 30
0.0
 11
4252.773955237884
 21
2289.286316458007
 31
0.0
  0
LINE
  5
17BD
330
1F
100
AcDbEntity
  8
SANINDUSA
100
AcDbLine
 10
4252.773955237884
 20
2289.24617323639
 30
0.0
 11
4252.773955237884
 21
2289.240663926919
 31
0.0
  0
LINE
  5
17C3
330
1F
100
AcDbEntity
  8
SANINDUSA
100
AcDbLine
 10
4252.773955237884
 20
2289.033993612845
 30
0.0
 11
4252.773955237884
 21
2289.031993608793
 31
0.0
  0
SPLINE
  5
17C4
330
1F
100
AcDbEntity
  8
SANINDUSA
100
AcDbSpline
210
0.0
220
0.0
230
1.0
 70
    24
 71
     3
 72
    12
 73
     8
 74
     0
 42
0.00000001
 43
0.0000000001
 40
0.0
 40
0.0
 40
0.0
 40
0.0
 40
0.1047368289323952
 40
0.2589774243569425
 40
0.5059815970639706
 40
0.7529543867615111
 40
1.0
 40
1.0
 40
1.0
 40
1.0
 10
4252.938945767303
 20
2289.031993608793
 30
0.0
 10
4252.933191716745
 20
2289.031993608793
 30
0.0
 10
4252.918963968893
 20
2289.031993608793
 30
0.0
 10
4252.891144971134
 20
2289.031993608793
 30
0.0
 10
4252.855489485646
 20
2289.031993608793
 30
0.0
 10
4252.814716489455
 20
2289.031993608793
 30
0.0
 10
4252.787543656928
 20
2289.031993608793
 30
0.0
 10
4252.773955237882
 20
2289.031993608793
 30
0.0
  0
SPLINE
  5
17D2
330
1F
100
AcDbEntity
  8
SANINDUSA
100
AcDbSpline
210
0.0
220
0.0
230
1.0
 70
    24
 71
     3
 72
    22
 73
    18
 74
     0
 42
0.00000001
 43
0.0000000001
 40
0.0
 40
0.0
 40
0.0
 40
0.0
 40
0.125
 40
0.125
 40
0.25
 40
0.25
 40
0.375
 40
0.375
 40
0.5
 40
0.5
 40
0.625
 40
0.625
 40
0.75
 40
0.75
 40
0.875
 40
0.875
 40
1.0
 40
1.0
 40
1.0
 40
1.0
 10
4252.773955237884
 20
2289.068968755282
 30
0.0
 10
4252.773955237884
 20
2289.068714185996
 30
0.0
 10
4252.773955237884
 20
2289.068465106443
 30
0.0
 10
4252.773955237884
 20
2289.067977472593
 30
0.0
 10
4252.773955237884
 20
2289.067736831354
 30
0.0
 10
4252.773955237884
 20
2289.067276958599
 30
0.0
 10
4252.773955237884
 20
2289.067059825939
 30
0.0
 10
4252.773955237884
 20
2289.066650689548
 30
0.0
 10
4252.773955237884
 20
2289.066457012586
 30
0.0
 10
4252.773955237884
 20
2289.066109382662
 30
0.0
 10
4252.773955237884
 20
2289.065954186964
 30
0.0
 10
4252.773955237884
 20
2289.065681169768
 30
0.0
 10
4252.773955237884
 20
2289.065563503225
 30
0.0
 10
4252.773955237884
 20
2289.065376220939
 30
0.0
 10
4252.773955237884
 20
2289.065304941312
 30
0.0
 10
4252.773955237884
 20
2289.065208268188
 30
0.0
 10
4252.773955237884
 20
2289.065183642013
 30
0.0
 10
4252.773955237884
 20
2289.065183642013
 30
0.0
  0
LINE
  5
17D4
330
1F
100
AcDbEntity
  8
SANINDUSA
100
AcDbLine
 10
4252.773955237884
 20
2289.086974870284
 30
0.0
 11
4252.773955237884
 21
2289.068968754132
 31
0.0
  0
LINE
  5
17D6
330
1F
100
AcDbEntity
  8
SANINDUSA
100
AcDbLine
 10
4252.773955237884
 20
2289.233494754751
 30
0.0
 11
4252.773955237884
 21
2289.086974870284
 31
0.0
  0
SPLINE
  5
17D7
330
1F
100
AcDbEntity
  8
SANINDUSA
100
AcDbSpline
210
0.0
220
0.0
230
1.0
 70
    24
 71
     3
 72
    16
 73
    12
 74
     0
 42
0.00000001
 43
0.0000000001
 40
0.0
 40
0.0
 40
0.0
 40
0.0
 40
0.2499999999999944
 40
0.2499999999999944
 40
0.4999999999999889
 40
0.4999999999999889
 40
0.6249999999999896
 40
0.6249999999999896
 40
0.7499999999999903
 40
0.7499999999999903
 40
1.0
 40
1.0
 40
1.0
 40
1.0
 10
4252.773955237884
 20
2289.240663934117
 30
0.0
 10
4252.773955237884
 20
2289.240455389637
 30
0.0
 10
4252.773955237884
 20
2289.240122245431
 30
0.0
 10
4252.773955237884
 20
2289.239209135726
 30
0.0
 10
4252.773955237884
 20
2289.238652625466
 30
0.0
 10
4252.773955237884
 20
2289.237674312504
 30
0.0
 10
4252.773955237884
 20
2289.23733255094
 30
0.0
 10
4252.773955237884
 20
2289.236618879447
 30
0.0
 10
4252.773955237884
 20
2289.236245447991
 30
0.0
 10
4252.773955237884
 20
2289.235087313457
 30
0.0
 10
4252.773955237884
 20
2289.234299129859
 30
0.0
 10
4252.773955237884
 20
2289.233494755265
 30
0.0
  0
LINE
  5
17D9
330
1F
100
AcDbEntity
  8
SANINDUSA
100
AcDbLine
 10
4253.104981672783
 20
2289.366993617137
 30
0.0
 11
4253.035519880075
 21
2289.366993617137
 31
0.0
  0
LINE
  5
17EB
330
1F
100
AcDbEntity
  8
SANINDUSA
100
AcDbLine
 10
4251.88186866953
 20
2289.366993613579
 30
0.0
 11
4251.537004490272
 21
2289.366993613579
 31
0.0
  0
LINE
  5
17EC
330
1F
100
AcDbEntity
  8
SANINDUSA
100
AcDbLine
 10
4251.828890254702
 20
2289.031993613573
 30
0.0
 11
4251.589982958556
 21
2289.031993613574
 31
0.0
  0
LINE
  5
17F1
330
1F
100
AcDbEntity
  8
SANINDUSA
100
AcDbLine
 10
4252.08826197242
 20
2289.366993613428
 30
0.0
 11
4252.585908997292
 21
2289.366993617137
 31
0.0
  0
ARC
  5
17F2
330
1F
100
AcDbEntity
  8
SANINDUSA
100
AcDbCircle
 10
4252.097074867489
 20
2289.37884792802
 30
0.0
 40
0.4993223975874331
100
AcDbArc
 50
316.0983697040657
 51
357.4395988261471
  0
ARC
  5
180B
330
1F
100
AcDbEntity
  8
SANINDUSA
100
AcDbCircle
 10
4252.962644224367
 20
2289.167748288281
 30
0.0
 40
0.02
100
AcDbArc
 50
11.06763224595382
 51
65.58201108021251
  0
LINE
  5
2DE7
330
1F
100
AcDbEntity
  8
SANINDUSA
100
AcDbLine
 10
4252.911891633341
 20
2289.321993617137
 30
0.0
 11
4253.226020526905
 21
2289.321993615349
 31
0.0
  0
ENDSEC
  0
SECTION
  2
OBJECTS
  0
DICTIONARY
  5
C
330
0
100
AcDbDictionary
281
     1
  3
ACAD_2007HEADERVARS_RT
350
39DC
  3
ACAD_CIP_PREVIOUS_PRODUCT_INFO
350
10B9
  3
ACAD_COLOR
350
EE6
  3
ACAD_DETAILVIEWSTYLE
350
10B1
  3
ACAD_GROUP
350
D
  3
ACAD_LAYOUT
350
1A
  3
ACAD_MATERIAL
350
EE5
  3
ACAD_MLEADERSTYLE
350
10AD
  3
ACAD_MLINESTYLE
350
17
  3
ACAD_PLOTSETTINGS
350
19
  3
ACAD_PLOTSTYLENAME
350
E
  3
ACAD_SCALELIST
350
109B
  3
ACAD_SECTIONVIEWSTYLE
350
10AF
  3
ACAD_TABLESTYLE
350
EE7
  3
ACAD_VISUALSTYLE
350
1082
  3
ACDB_RECOMPOSE_DATA
350
39DA
  3
AcDbVariableDictionary
350
3D
  3
ASE_INDEX_DICTIONARY
350
1066
  3
DWGPROPS
350
39DB
  0
DICTIONARY
  5
397F
330
8
100
AcDbDictionary
280
     1
281
     1
  0
DICTIONARY
  5
1051
330
2
100
AcDbDictionary
280
     1
281
     1
  3
ACAD_LAYERFILTERS
360
1065
  3
ACAD_LAYERSTATES
360
12EB
  3
ACLYDICTIONARY
360
1064
  0
DICTIONARY
  5
3959
330
10
100
AcDbDictionary
280
     1
281
     1
  3
ADSK_XREC_LAYER_RECONCILED
360
395A
  0
DICTIONARY
  5
395B
330
2F
100
AcDbDictionary
280
     1
281
     1
  3
ADSK_XREC_LAYER_RECONCILED
360
395C
  0
DICTIONARY
  5
395D
330
30
100
AcDbDictionary
280
     1
281
     1
  3
ADSK_XREC_LAYER_RECONCILED
360
395E
  0
DICTIONARY
  5
395F
330
31
100
AcDbDictionary
280
     1
281
     1
  3
ADSK_XREC_LAYER_RECONCILED
360
3960
  0
DICTIONARY
  5
3961
330
32
100
AcDbDictionary
280
     1
281
     1
  3
ADSK_XREC_LAYER_RECONCILED
360
3962
  0
DICTIONARY
  5
3963
330
33
100
AcDbDictionary
280
     1
281
     1
  3
ADSK_XREC_LAYER_RECONCILED
360
3964
  0
DICTIONARY
  5
3965
330
34
100
AcDbDictionary
280
     1
281
     1
  3
ADSK_XREC_LAYER_RECONCILED
360
3966
  0
DICTIONARY
  5
3967
330
35
100
AcDbDictionary
280
     1
281
     1
  3
ADSK_XREC_LAYER_RECONCILED
360
3968
  0
DICTIONARY
  5
3969
330
36
100
AcDbDictionary
280
     1
281
     1
  3
ADSK_XREC_LAYER_RECONCILED
360
396A
  0
DICTIONARY
  5
396B
330
37
100
AcDbDictionary
280
     1
281
     1
  3
ADSK_XREC_LAYER_RECONCILED
360
396C
  0
DICTIONARY
  5
396D
330
5D6
100
AcDbDictionary
280
     1
281
     1
  3
ADSK_XREC_LAYER_RECONCILED
360
396E
  0
DICTIONARY
  5
396F
330
8AF
100
AcDbDictionary
280
     1
281
     1
  3
ADSK_XREC_LAYER_RECONCILED
360
3970
  0
DICTIONARY
  5
3971
330
8F8
100
AcDbDictionary
280
     1
281
     1
  3
ADSK_XREC_LAYER_RECONCILED
360
3972
  0
DICTIONARY
  5
3973
330
91D
100
AcDbDictionary
280
     1
281
     1
  3
ADSK_XREC_LAYER_RECONCILED
360
3974
  0
DICTIONARY
  5
3975
330
C7B
100
AcDbDictionary
280
     1
281
     1
  3
ADSK_XREC_LAYER_RECONCILED
360
3976
  0
DICTIONARY
  5
3977
330
1060
100
AcDbDictionary
280
     1
281
     1
  3
ADSK_XREC_LAYER_RECONCILED
360
3978
  0
DICTIONARY
  5
39DC
102
{ACAD_REACTORS
330
C
102
}
330
C
100
AcDbDictionary
281
     1
  3
DIMJOGANG
350
39DD
  0
XRECORD
  5
10B9
102
{ACAD_REACTORS
330
C
102
}
330
C
100
AcDbXrecord
280
     1
300
ACD
300
2013
300
ACD_F_S
  0
DICTIONARY
  5
EE6
102
{ACAD_REACTORS
330
C
102
}
330
C
100
AcDbDictionary
281
     1
  0
DICTIONARY
  5
10B1
102
{ACAD_REACTORS
330
C
102
}
330
C
100
AcDbDictionary
281
     1
  3
Metric50
350
10B2
  0
DICTIONARY
  5
D
102
{ACAD_REACTORS
330
C
102
}
330
C
100
AcDbDictionary
281
     1
  0
DICTIONARY
  5
1A
102
{ACAD_REACTORS
330
C
102
}
330
C
100
AcDbDictionary
281
     1
  3
Layout1
350
1E
  3
Layout2
350
26
  3
Model
350
22
  0
DICTIONARY
  5
EE5
102
{ACAD_REACTORS
330
C
102
}
330
C
100
AcDbDictionary
281
     1
  3
ByBlock
350
1072
  3
ByLayer
350
106A
  3
Global
350
107A
  0
DICTIONARY
  5
10AD
102
{ACAD_REACTORS
330
C
102
}
330
C
100
AcDbDictionary
281
     1
  3
Standard
350
10AE
  0
DICTIONARY
  5
17
102
{ACAD_REACTORS
330
C
102
}
330
C
100
AcDbDictionary
281
     1
  3
Standard
350
18
  0
DICTIONARY
  5
19
102
{ACAD_REACTORS
330
C
102
}
330
C
100
AcDbDictionary
281
     1
  0
ACDBDICTIONARYWDFLT
  5
E
102
{ACAD_REACTORS
330
C
102
}
330
C
100
AcDbDictionary
281
     1
  3
Normal
350
F
100
AcDbDictionaryWithDefault
340
F
  0
DICTIONARY
  5
109B
102
{ACAD_REACTORS
330
C
102
}
330
C
100
AcDbDictionary
281
     1
  3
A0
350
109C
  3
A1
350
109D
  3
A2
350
109E
  3
A3
350
109F
  3
A4
350
10A0
  3
A5
350
10A1
  3
A6
350
10A2
  3
A7
350
10A3
  3
A8
350
10A4
  3
A9
350
10A5
  3
B0
350
10A6
  3
B1
350
10A7
  3
B2
350
10A8
  3
B3
350
10A9
  3
B4
350
10AA
  3
B5
350
10AB
  3
B6
350
10AC
  0
DICTIONARY
  5
10AF
102
{ACAD_REACTORS
330
C
102
}
330
C
100
AcDbDictionary
281
     1
  3
Metric50
350
10B0
  0
DICTIONARY
  5
EE7
102
{ACAD_REACTORS
330
C
102
}
330
C
100
AcDbDictionary
281
     1
  3
Standard
350
EE8
  0
DICTIONARY
  5
1082
102
{ACAD_REACTORS
330
C
102
}
330
C
100
AcDbDictionary
281
     1
  3
2dWireframe
350
1088
  3
Basic
350
1087
  3
Brighten
350
108E
  3
ColorChange
350
1092
  3
Conceptual
350
108B
  3
Dim
350
108D
  3
EdgeColorOff
350
109A
  3
Facepattern
350
1091
  3
Flat
350
1083
  3
FlatWithEdges
350
1084
  3
Gouraud
350
1085
  3
GouraudWithEdges
350
1086
  3
Hidden
350
108A
  3
JitterOff
350
1098
  3
Linepattern
350
1090
  3
OverhangOff
350
1099
  3
Realistic
350
108C
  3
Shaded
350
1097
  3
Shaded with edges
350
1096
  3
Shades of Gray
350
1093
  3
Sketchy
350
1094
  3
Thicken
350
108F
  3
Wireframe
350
1089
  3
X-Ray
350
1095
  0
XRECORD
  5
39DA
102
{ACAD_REACTORS
330
C
102
}
330
C
100
AcDbXrecord
280
     1
 90
        1
330
EE8
  0
DICTIONARY
  5
3D
102
{ACAD_REACTORS
330
C
102
}
330
C
100
AcDbDictionary
281
     1
  3
CANNOSCALE
350
39CC
  3
CMLEADERSTYLE
350
39C9
  3
CTABLESTYLE
350
1049
  3
CVIEWDETAILSTYLE
350
39CA
  3
CVIEWSECTIONSTYLE
350
39CB
  3
DIMASSOC
350
3F
  3
HIDETEXT
350
3E
  3
INDEXCTL
350
39CE
  3
SORTENTS
350
39CD
  3
XCLIPFRAME
350
39D8
  0
DICTIONARY
  5
1066
102
{ACAD_REACTORS
330
C
102
}
330
C
100
AcDbDictionary
281
     1
  3
ASEBlockHierarchyIndexRecord
350
1067
1001
DCO15
1040
1602247867.484
  0
XRECORD
  5
39DB
102
{ACAD_REACTORS
330
C
102
}
330
C
100
AcDbXrecord
280
     1
  1
DWGPROPS COOKIE
  2

  3

  4

  6

  7

  8
Julio
  9

300
=
301
=
302
=
303
=
304
=
305
=
306
=
307
=
308
=
309
=
 40
0.0021963541666667
 41
2456849.517746736
 42
2457191.625549109
  1

 90
        0
  0
DICTIONARY
  5
1065
102
{ACAD_REACTORS
330
1051
102
}
330
1051
100
AcDbDictionary
281
     1
  0
DICTIONARY
  5
12EB
102
{ACAD_REACTORS
330
1051
102
}
330
1051
100
AcDbDictionary
281
     1
  0
DICTIONARY
  5
1064
102
{ACAD_REACTORS
330
1051
102
}
330
1051
100
AcDbDictionary
281
     1
1001
ACAD
1000
<All
  0
XRECORD
  5
395A
102
{ACAD_REACTORS
330
3959
102
}
330
3959
100
AcDbXrecord
280
     1
290
     1
  0
XRECORD
  5
395C
102
{ACAD_REACTORS
330
395B
102
}
330
395B
100
AcDbXrecord
280
     1
290
     1
  0
XRECORD
  5
395E
102
{ACAD_REACTORS
330
395D
102
}
330
395D
100
AcDbXrecord
280
     1
290
     1
  0
XRECORD
  5
3960
102
{ACAD_REACTORS
330
395F
102
}
330
395F
100
AcDbXrecord
280
     1
290
     1
  0
XRECORD
  5
3962
102
{ACAD_REACTORS
330
3961
102
}
330
3961
100
AcDbXrecord
280
     1
290
     1
  0
XRECORD
  5
3964
102
{ACAD_REACTORS
330
3963
102
}
330
3963
100
AcDbXrecord
280
     1
290
     1
  0
XRECORD
  5
3966
102
{ACAD_REACTORS
330
3965
102
}
330
3965
100
AcDbXrecord
280
     1
290
     1
  0
XRECORD
  5
3968
102
{ACAD_REACTORS
330
3967
102
}
330
3967
100
AcDbXrecord
280
     1
290
     1
  0
XRECORD
  5
396A
102
{ACAD_REACTORS
330
3969
102
}
330
3969
100
AcDbXrecord
280
     1
290
     1
  0
XRECORD
  5
396C
102
{ACAD_REACTORS
330
396B
102
}
330
396B
100
AcDbXrecord
280
     1
290
     1
  0
XRECORD
  5
396E
102
{ACAD_REACTORS
330
396D
102
}
330
396D
100
AcDbXrecord
280
     1
290
     1
  0
XRECORD
  5
3970
102
{ACAD_REACTORS
330
396F
102
}
330
396F
100
AcDbXrecord
280
     1
290
     1
  0
XRECORD
  5
3972
102
{ACAD_REACTORS
330
3971
102
}
330
3971
100
AcDbXrecord
280
     1
290
     1
  0
XRECORD
  5
3974
102
{ACAD_REACTORS
330
3973
102
}
330
3973
100
AcDbXrecord
280
     1
290
     1
  0
XRECORD
  5
3976
102
{ACAD_REACTORS
330
3975
102
}
330
3975
100
AcDbXrecord
280
     1
290
     1
  0
XRECORD
  5
3978
102
{ACAD_REACTORS
330
3977
102
}
330
3977
100
AcDbXrecord
280
     1
290
     1
  0
XRECORD
  5
39DD
102
{ACAD_REACTORS
330
39DC
102
}
330
39DC
100
AcDbXrecord
280
     1
 40
1.570796326794896
  0
ACDBDETAILVIEWSTYLE
  5
10B2
102
{ACAD_REACTORS
330
10B1
102
}
330
10B1
100
AcDbModelDocViewStyle
 70
     0
  3
Metric50
290
     0
100
AcDbDetailViewStyle
 70
     0
 71
     0
 90
        3
 71
     1
340
11
 40
5.0
340
0
 40
5.0
300

 40
0.0
280
     1
 71
     2
340
16
 90
       25
 71
     3
340
11
 40
5.0
 90
        0
 40
15.0
 90
        1
300
%<\AcVar ViewDetailId>% (%<\AcVar ViewScale \f "%sn">%)
 71
     4
340
16
 90
       25
340
16
 90
       25
280
     0
  0
LAYOUT
  5
1E
102
{ACAD_XDICTIONARY
360
39DE
102
}
102
{ACAD_REACTORS
330
1A
102
}
330
1A
100
AcDbPlotSettings
  1

  2
Ploter HP500
  4

  6

 40
0.0
 41
0.0
 42
0.0
 43
0.0
 44
0.0
 45
0.0
 46
0.0
 47
0.0
 48
0.0
 49
0.0
140
0.0
141
0.0
142
1.0
143
1.0
 70
   688
 72
     0
 73
     0
 74
     5
  7
sanindusa.ctb
 75
    16
147
1.0
148
0.0
149
0.0
100
AcDbLayout
  1
Layout1
 70
     1
 71
     1
 10
0.0
 20
0.0
 11
420.0
 21
297.0
 12
0.0
 22
0.0
 32
0.0
 14
1.000000000000000E+20
 24
1.000000000000000E+20
 34
1.000000000000000E+20
 15
-1.000000000000000E+20
 25
-1.000000000000000E+20
 35
-1.000000000000000E+20
146
0.0
 13
0.0
 23
0.0
 33
0.0
 16
1.0
 26
0.0
 36
0.0
 17
0.0
 27
1.0
 37
0.0
 76
     0
330
1B
  0
LAYOUT
  5
26
102
{ACAD_XDICTIONARY
360
39E2
102
}
102
{ACAD_REACTORS
330
1A
102
}
330
1A
100
AcDbPlotSettings
  1

  2
Ploter HP500
  4

  6

 40
0.0
 41
0.0
 42
0.0
 43
0.0
 44
0.0
 45
0.0
 46
0.0
 47
0.0
 48
0.0
 49
0.0
140
0.0
141
0.0
142
1.0
143
1.0
 70
   688
 72
     0
 73
     0
 74
     5
  7
sanindusa.ctb
 75
    16
147
1.0
148
0.0
149
0.0
100
AcDbLayout
  1
Layout2
 70
     1
 71
     2
 10
0.0
 20
0.0
 11
12.0
 21
9.0
 12
0.0
 22
0.0
 32
0.0
 14
0.0
 24
0.0
 34
0.0
 15
0.0
 25
0.0
 35
0.0
146
0.0
 13
0.0
 23
0.0
 33
0.0
 16
1.0
 26
0.0
 36
0.0
 17
0.0
 27
1.0
 37
0.0
 76
     0
330
23
  0
LAYOUT
  5
22
102
{ACAD_XDICTIONARY
360
39E0
102
}
102
{ACAD_REACTORS
330
1A
102
}
330
1A
100
AcDbPlotSettings
  1

  2
Ploter HP500
  4
User268
  6

 40
4.995333194732666
 41
16.97565841674804
 42
4.995330810546875
 43
16.97567749023437
 44
209.9733276367187
 45
296.9259948730469
 46
0.0
 47
0.0
 48
0.0
 49
0.0
140
0.0
141
0.0
142
1.0
143
1.0
 70
 11952
 72
     1
 73
     1
 74
     0
  7
sanindusa.ctb
 75
     0
147
1.0
148
-427.5957866592534
149
7.362384574453926
100
AcDbLayout
  1
Model
 70
     1
 71
     0
 10
0.0
 20
0.0
 11
12.0
 21
9.0
 12
0.0
 22
0.0
 32
0.0
 14
0.0
 24
0.0
 34
0.0
 15
0.0
 25
0.0
 35
0.0
146
0.0
 13
0.0
 23
0.0
 33
0.0
 16
1.0
 26
0.0
 36
0.0
 17
0.0
 27
1.0
 37
0.0
 76
     0
330
1F
331
1068
  0
MATERIAL
  5
1072
102
{ACAD_XDICTIONARY
360
1073
102
}
102
{ACAD_REACTORS
330
EE5
102
}
330
EE5
100
AcDbMaterial
  1
ByBlock
 72
     0
 43
0.0008202099737533
 43
0.0
 43
0.0
 43
0.0
 43
0.0
 43
0.0008202099737533
 43
0.0
 43
0.0
 43
0.0
 43
0.0
 43
1.0
 43
0.0
 43
0.0
 43
0.0
 43
0.0
 43
1.0
 77
     0
 47
0.0008202099737533
 47
0.0
 47
0.0
 47
0.0
 47
0.0
 47
0.0008202099737533
 47
0.0
 47
0.0
 47
0.0
 47
0.0
 47
1.0
 47
0.0
 47
0.0
 47
0.0
 47
0.0
 47
1.0
171
     0
 49
0.0008202099737533
 49
0.0
 49
0.0
 49
0.0
 49
0.0
 49
0.0008202099737533
 49
0.0
 49
0.0
 49
0.0
 49
0.0
 49
1.0
 49
0.0
 49
0.0
 49
0.0
 49
0.0
 49
1.0
175
     0
142
0.0008202099737533
142
0.0
142
0.0
142
0.0
142
0.0
142
0.0008202099737533
142
0.0
142
0.0
142
0.0
142
0.0
142
1.0
142
0.0
142
0.0
142
0.0
142
0.0
142
1.0
179
     0
144
0.0008202099737533
144
0.0
144
0.0
144
0.0
144
0.0
144
0.0008202099737533
144
0.0
144
0.0
144
0.0
144
0.0
144
1.0
144
0.0
144
0.0
144
0.0
144
0.0
144
1.0
147
0.0008202099737533
147
0.0
147
0.0
147
0.0
147
0.0
147
0.0008202099737533
147
0.0
147
0.0
147
0.0
147
0.0
147
1.0
147
0.0
147
0.0
147
0.0
147
0.0
147
1.0
  0
MATERIAL
  5
106A
102
{ACAD_XDICTIONARY
360
106B
102
}
102
{ACAD_REACTORS
330
EE5
102
}
330
EE5
100
AcDbMaterial
  1
ByLayer
 72
     0
 43
0.0008202099737533
 43
0.0
 43
0.0
 43
0.0
 43
0.0
 43
0.0008202099737533
 43
0.0
 43
0.0
 43
0.0
 43
0.0
 43
1.0
 43
0.0
 43
0.0
 43
0.0
 43
0.0
 43
1.0
 77
     0
 47
0.0008202099737533
 47
0.0
 47
0.0
 47
0.0
 47
0.0
 47
0.0008202099737533
 47
0.0
 47
0.0
 47
0.0
 47
0.0
 47
1.0
 47
0.0
 47
0.0
 47
0.0
 47
0.0
 47
1.0
171
     0
 49
0.0008202099737533
 49
0.0
 49
0.0
 49
0.0
 49
0.0
 49
0.0008202099737533
 49
0.0
 49
0.0
 49
0.0
 49
0.0
 49
1.0
 49
0.0
 49
0.0
 49
0.0
 49
0.0
 49
1.0
175
     0
142
0.0008202099737533
142
0.0
142
0.0
142
0.0
142
0.0
142
0.0008202099737533
142
0.0
142
0.0
142
0.0
142
0.0
142
1.0
142
0.0
142
0.0
142
0.0
142
0.0
142
1.0
179
     0
144
0.0008202099737533
144
0.0
144
0.0
144
0.0
144
0.0
144
0.0008202099737533
144
0.0
144
0.0
144
0.0
144
0.0
144
1.0
144
0.0
144
0.0
144
0.0
144
0.0
144
1.0
147
0.0008202099737533
147
0.0
147
0.0
147
0.0
147
0.0
147
0.0008202099737533
147
0.0
147
0.0
147
0.0
147
0.0
147
1.0
147
0.0
147
0.0
147
0.0
147
0.0
147
1.0
  0
MATERIAL
  5
107A
102
{ACAD_XDICTIONARY
360
107B
102
}
102
{ACAD_REACTORS
330
EE5
102
}
330
EE5
100
AcDbMaterial
  1
Global
 72
     0
 43
0.0008202099737533
 43
0.0
 43
0.0
 43
0.0
 43
0.0
 43
0.0008202099737533
 43
0.0
 43
0.0
 43
0.0
 43
0.0
 43
1.0
 43
0.0
 43
0.0
 43
0.0
 43
0.0
 43
1.0
 77
     0
 47
0.0008202099737533
 47
0.0
 47
0.0
 47
0.0
 47
0.0
 47
0.0008202099737533
 47
0.0
 47
0.0
 47
0.0
 47
0.0
 47
1.0
 47
0.0
 47
0.0
 47
0.0
 47
0.0
 47
1.0
171
     0
 49
0.0008202099737533
 49
0.0
 49
0.0
 49
0.0
 49
0.0
 49
0.0008202099737533
 49
0.0
 49
0.0
 49
0.0
 49
0.0
 49
1.0
 49
0.0
 49
0.0
 49
0.0
 49
0.0
 49
1.0
175
     0
142
0.0008202099737533
142
0.0
142
0.0
142
0.0
142
0.0
142
0.0008202099737533
142
0.0
142
0.0
142
0.0
142
0.0
142
1.0
142
0.0
142
0.0
142
0.0
142
0.0
142
1.0
179
     0
144
0.0008202099737533
144
0.0
144
0.0
144
0.0
144
0.0
144
0.0008202099737533
144
0.0
144
0.0
144
0.0
144
0.0
144
1.0
144
0.0
144
0.0
144
0.0
144
0.0
144
1.0
147
0.0008202099737533
147
0.0
147
0.0
147
0.0
147
0.0
147
0.0008202099737533
147
0.0
147
0.0
147
0.0
147
0.0
147
1.0
147
0.0
147
0.0
147
0.0
147
0.0
147
1.0
  0
MLEADERSTYLE
  5
10AE
102
{ACAD_XDICTIONARY
360
3A18
102
}
102
{ACAD_REACTORS
330
10AD
102
}
330
10AD
100
AcDbMLeaderStyle
170
     2
171
     1
172
     0
 90
        2
 40
0.0
 41
0.0
173
     1
 91
-1056964608
340
14
 92
       -2
290
     1
 42
2.0
291
     1
 43
0.36
  3
Standard
 44
4.0
300

342
11
174
     1
178
     6
175
     1
176
     0
 93
-1056964608
 45
4.0
292
     0
297
     0
 46
4.0
 94
-1056964608
 47
1.0
 49
1.0
140
1.0
293
     1
141
0.0
294
     1
177
     0
142
1.0
295
     0
296
     0
143
0.125
1001
ACAD_MLEADERVER
1070
     2
  0
MLINESTYLE
  5
18
102
{ACAD_REACTORS
330
17
102
}
330
17
100
AcDbMlineStyle
  2
STANDARD
 70
     0
  3

 62
   256
 51
90.0
 52
90.0
 71
     2
 49
0.5
 62
   256
  6
BYLAYER
 49
-0.5
 62
   256
  6
BYLAYER
  0
ACDBPLACEHOLDER
  5
F
102
{ACAD_REACTORS
330
E
102
}
330
E
  0
SCALE
  5
109C
102
{ACAD_REACTORS
330
109B
102
}
330
109B
100
AcDbScale
 70
     0
300
1:1
140
1.0
141
1.0
290
     1
  0
SCALE
  5
109D
102
{ACAD_REACTORS
330
109B
102
}
330
109B
100
AcDbScale
 70
     0
300
1:2
140
1.0
141
2.0
290
     0
  0
SCALE
  5
109E
102
{ACAD_REACTORS
330
109B
102
}
330
109B
100
AcDbScale
 70
     0
300
1:4
140
1.0
141
4.0
290
     0
  0
SCALE
  5
109F
102
{ACAD_REACTORS
330
109B
102
}
330
109B
100
AcDbScale
 70
     0
300
1:5
140
1.0
141
5.0
290
     0
  0
SCALE
  5
10A0
102
{ACAD_REACTORS
330
109B
102
}
330
109B
100
AcDbScale
 70
     0
300
1:8
140
1.0
141
8.0
290
     0
  0
SCALE
  5
10A1
102
{ACAD_REACTORS
330
109B
102
}
330
109B
100
AcDbScale
 70
     0
300
1:10
140
1.0
141
10.0
290
     0
  0
SCALE
  5
10A2
102
{ACAD_REACTORS
330
109B
102
}
330
109B
100
AcDbScale
 70
     0
300
1:16
140
1.0
141
16.0
290
     0
  0
SCALE
  5
10A3
102
{ACAD_REACTORS
330
109B
102
}
330
109B
100
AcDbScale
 70
     0
300
1:20
140
1.0
141
20.0
290
     0
  0
SCALE
  5
10A4
102
{ACAD_REACTORS
330
109B
102
}
330
109B
100
AcDbScale
 70
     0
300
1:30
140
1.0
141
30.0
290
     0
  0
SCALE
  5
10A5
102
{ACAD_REACTORS
330
109B
102
}
330
109B
100
AcDbScale
 70
     0
300
1:40
140
1.0
141
40.0
290
     0
  0
SCALE
  5
10A6
102
{ACAD_REACTORS
330
109B
102
}
330
109B
100
AcDbScale
 70
     0
300
1:50
140
1.0
141
50.0
290
     0
  0
SCALE
  5
10A7
102
{ACAD_REACTORS
330
109B
102
}
330
109B
100
AcDbScale
 70
     0
300
1:100
140
1.0
141
100.0
290
     0
  0
SCALE
  5
10A8
102
{ACAD_REACTORS
330
109B
102
}
330
109B
100
AcDbScale
 70
     0
300
2:1
140
2.0
141
1.0
290
     0
  0
SCALE
  5
10A9
102
{ACAD_REACTORS
330
109B
102
}
330
109B
100
AcDbScale
 70
     0
300
4:1
140
4.0
141
1.0
290
     0
  0
SCALE
  5
10AA
102
{ACAD_REACTORS
330
109B
102
}
330
109B
100
AcDbScale
 70
     0
300
8:1
140
8.0
141
1.0
290
     0
  0
SCALE
  5
10AB
102
{ACAD_REACTORS
330
109B
102
}
330
109B
100
AcDbScale
 70
     0
300
10:1
140
10.0
141
1.0
290
     0
  0
SCALE
  5
10AC
102
{ACAD_REACTORS
330
109B
102
}
330
109B
100
AcDbScale
 70
     0
300
100:1
140
100.0
141
1.0
290
     0
  0
ACDBSECTIONVIEWSTYLE
  5
10B0
102
{ACAD_REACTORS
330
10AF
102
}
330
10AF
100
AcDbModelDocViewStyle
 70
     0
  3
Metric50
290
     0
100
AcDbSectionViewStyle
 70
     0
 71
     0
 90
      102
 71
     1
340
11
 40
5.0
340
0
340
0
 40
5.0
300
I, O, Q, S, X, Z
 40
10.0
 90
        0
 40
2.5
 90
        0
 71
     2
340
16
 90
       25
340
16
 90
       50
 40
5.0
 40
2.5
 40
5.0
 71
     3
340
11
 40
5.0
 90
        0
 40
15.0
 90
        1
300
%<\AcVar ViewSectionStartId>%-%<\AcVar ViewSectionEndId>% (%<\AcVar ViewScale \f "%sn">%)
 71
     4
300
ANSI31
 40
1.0
 90
        0
290
     0
290
     0
 90
        6
 40
0.0
 40
1.570796326794896
 40
0.2617993877991494
 40
1.308996938995747
 40
-0.2617993877991494
 40
1.832595714594046
  0
TABLESTYLE
  5
EE8
102
{ACAD_XDICTIONARY
360
3979
102
}
102
{ACAD_REACTORS
330
EE7
102
}
330
EE7
100
AcDbTableStyle
  3
Standard
 70
     0
 71
     0
 40
1.5
 41
1.5
280
     0
281
     0
  7
Standard
140
4.5
170
     2
 62
     0
 63
     7
283
     0
274
    -2
284
     1
 64
     0
275
    -2
285
     1
 65
     0
276
    -2
286
     1
 66
     0
277
    -2
287
     1
 67
     0
278
    -2
288
     1
 68
     0
279
    -2
289
     1
 69
     0
  7
Standard
140
6.0
170
     5
 62
     0
 63
     7
283
     0
274
    -2
284
     1
 64
     0
275
    -2
285
     1
 65
     0
276
    -2
286
     1
 66
     0
277
    -2
287
     1
 67
     0
278
    -2
288
     1
 68
     0
279
    -2
289
     1
 69
     0
  7
Standard
140
4.5
170
     5
 62
     0
 63
     7
283
     0
274
    -2
284
     1
 64
     0
275
    -2
285
     1
 65
     0
276
    -2
286
     1
 66
     0
277
    -2
287
     1
 67
     0
278
    -2
288
     1
 68
     0
279
    -2
289
     1
 69
     0
  0
VISUALSTYLE
  5
1088
102
{ACAD_XDICTIONARY
360
39F2
102
}
102
{ACAD_REACTORS
330
1082
102
}
330
1082
100
AcDbVisualStyle
  2
2dWireframe
 70
     4
 71
     0
 72
     2
 73
     0
 90
        0
 40
-0.6
 41
-30.0
 62
     5
 63
     7
 74
     1
 91
        4
 64
     7
 65
   257
 75
     1
175
     1
 42
1.0
 92
        0
 66
   257
 43
1.0
 76
     1
 77
     6
 78
     2
 67
     7
 79
     5
170
     0
171
     0
290
     0
174
     0
 93
        1
 44
0.0
173
     0
291
     0
 45
0.0
1001
ACAD
1000
AcDbSavedByObjectVersion
1070
     0
  0
VISUALSTYLE
  5
1087
102
{ACAD_XDICTIONARY
360
39F0
102
}
102
{ACAD_REACTORS
330
1082
102
}
330
1082
100
AcDbVisualStyle
  2
Basic
 70
     7
 71
     1
 72
     0
 73
     1
 90
        0
 40
-0.6
 41
-30.0
 62
     5
 63
     7
 74
     0
 91
        4
 64
     7
 65
   257
 75
     1
175
     1
 42
1.0
 92
        8
 66
     7
 43
1.0
 76
     1
 77
     6
 78
     2
 67
     7
 79
     5
170
     0
171
     0
290
     0
174
     0
 93
        1
 44
0.0
173
     0
291
     1
 45
0.0
1001
ACAD
1000
AcDbSavedByObjectVersion
1070
     0
  0
VISUALSTYLE
  5
108E
102
{ACAD_XDICTIONARY
360
39FE
102
}
102
{ACAD_REACTORS
330
1082
102
}
330
1082
100
AcDbVisualStyle
  2
Brighten
 70
    12
 71
     2
 72
     2
 73
     0
 90
        0
 40
-0.6
 41
-30.0
 62
     5
 63
     7
 74
     1
 91
        4
 64
     7
 65
   257
 75
     1
175
     1
 42
1.0
 92
        8
 66
     7
 43
1.0
 76
     1
 77
     6
 78
     2
 67
     7
 79
     5
170
     0
171
     0
290
     0
174
     0
 93
        1
 44
50.0
173
     0
291
     1
 45
0.0
1001
ACAD
1000
AcDbSavedByObjectVersion
1070
     0
  0
VISUALSTYLE
  5
1092
102
{ACAD_XDICTIONARY
360
3A06
102
}
102
{ACAD_REACTORS
330
1082
102
}
330
1082
100
AcDbVisualStyle
  2
ColorChange
 70
    16
 71
     2
 72
     2
 73
     3
 90
        0
 40
-0.6
 41
-30.0
 62
     5
 63
     8
 74
     1
 91
        4
 64
     7
 65
   257
 75
     1
175
     1
 42
1.0
 92
        8
 66
     8
 43
1.0
 76
     1
 77
     6
 78
     2
 67
     7
 79
     5
170
     0
171
     0
290
     0
174
     0
 93
        1
 44
0.0
173
     0
291
     1
 45
0.0
1001
ACAD
1000
AcDbSavedByObjectVersion
1070
     0
  0
VISUALSTYLE
  5
108B
102
{ACAD_XDICTIONARY
360
39F8
102
}
102
{ACAD_REACTORS
330
1082
102
}
330
1082
100
AcDbVisualStyle
  2
Conceptual
 70
     9
 71
     3
 72
     2
 73
     0
 90
        0
 40
-0.6
 41
-30.0
 62
     5
 63
     7
 74
     2
 91
        2
 64
     7
 65
   257
 75
     1
175
     1
 42
179.0
 92
        8
 66
     7
 43
1.0
 76
     1
 77
     6
 78
     2
 67
     7
 79
     3
170
     0
171
     0
290
     0
174
     0
 93
        1
 44
0.0
173
     0
291
     0
 45
0.0
1001
ACAD
1000
AcDbSavedByObjectVersion
1070
     0
  0
VISUALSTYLE
  5
108D
102
{ACAD_XDICTIONARY
360
39FC
102
}
102
{ACAD_REACTORS
330
1082
102
}
330
1082
100
AcDbVisualStyle
  2
Dim
 70
    11
 71
     2
 72
     2
 73
     0
 90
        0
 40
-0.6
 41
-30.0
 62
     5
 63
     7
 74
     1
 91
        4
 64
     7
 65
   257
 75
     1
175
     1
 42
1.0
 92
        8
 66
     7
 43
1.0
 76
     1
 77
     6
 78
     2
 67
     7
 79
     5
170
     0
171
     0
290
     0
174
     0
 93
        1
 44
-50.0
173
     0
291
     1
 45
0.0
1001
ACAD
1000
AcDbSavedByObjectVersion
1070
     0
  0
VISUALSTYLE
  5
109A
102
{ACAD_XDICTIONARY
360
3A16
102
}
102
{ACAD_REACTORS
330
1082
102
}
330
1082
100
AcDbVisualStyle
  2
EdgeColorOff
 70
    22
 71
     2
 72
     2
 73
     0
 90
        0
 40
-0.6
 41
-30.0
 62
     5
 63
     7
 74
     1
 91
        4
 64
     7
 65
   257
 75
     1
175
     1
 42
1.0
 92
        8
 66
     7
 43
1.0
 76
     1
 77
     6
 78
     2
 67
     7
 79
     5
170
     0
171
     0
290
     0
174
     0
 93
        1
 44
0.0
173
     0
291
     1
 45
0.0
1001
ACAD
1000
AcDbSavedByObjectVersion
1070
     0
  0
VISUALSTYLE
  5
1091
102
{ACAD_XDICTIONARY
360
3A04
102
}
102
{ACAD_REACTORS
330
1082
102
}
330
1082
100
AcDbVisualStyle
  2
Facepattern
 70
    15
 71
     2
 72
     2
 73
     0
 90
        0
 40
-0.6
 41
-30.0
 62
     5
 63
     7
 74
     1
 91
        4
 64
     7
 65
   257
 75
     1
175
     1
 42
1.0
 92
        8
 66
     7
 43
1.0
 76
     1
 77
     6
 78
     2
 67
     7
 79
     5
170
     0
171
     0
290
     0
174
     0
 93
        1
 44
0.0
173
     0
291
     1
 45
0.0
1001
ACAD
1000
AcDbSavedByObjectVersion
1070
     0
  0
VISUALSTYLE
  5
1083
102
{ACAD_XDICTIONARY
360
39E8
102
}
102
{ACAD_REACTORS
330
1082
102
}
330
1082
100
AcDbVisualStyle
  2
Flat
 70
     0
 71
     2
 72
     1
 73
     1
 90
        2
 40
-0.6
 41
30.0
 62
     5
 63
     7
 74
     0
 91
        0
 64
     7
 65
   257
 75
     1
175
     1
 42
1.0
 92
        8
 66
     7
 43
1.0
 76
     1
 77
     6
 78
     2
 67
     7
 79
     5
170
     0
171
     0
290
     0
174
     0
 93
       13
 44
0.0
173
     0
291
     1
 45
0.0
1001
ACAD
1000
AcDbSavedByObjectVersion
1070
     0
  0
VISUALSTYLE
  5
1084
102
{ACAD_XDICTIONARY
360
39EA
102
}
102
{ACAD_REACTORS
330
1082
102
}
330
1082
100
AcDbVisualStyle
  2
FlatWithEdges
 70
     1
 71
     2
 72
     1
 73
     1
 90
        2
 40
-0.6
 41
30.0
 62
     5
 63
     7
 74
     1
 91
        0
 64
     7
 65
   257
 75
     1
175
     1
 42
1.0
 92
        0
 66
   257
 43
1.0
 76
     1
 77
     6
 78
     2
 67
     7
 79
     5
170
     0
171
     0
290
     0
174
     0
 93
       13
 44
0.0
173
     0
291
     1
 45
0.0
1001
ACAD
1000
AcDbSavedByObjectVersion
1070
     0
  0
VISUALSTYLE
  5
1085
102
{ACAD_XDICTIONARY
360
39EC
102
}
102
{ACAD_REACTORS
330
1082
102
}
330
1082
100
AcDbVisualStyle
  2
Gouraud
 70
     2
 71
     2
 72
     2
 73
     1
 90
        2
 40
-0.6
 41
30.0
 62
     5
 63
     7
 74
     0
 91
        0
 64
     7
 65
   257
 75
     1
175
     1
 42
1.0
 92
        0
 66
     7
 43
1.0
 76
     1
 77
     6
 78
     2
 67
     7
 79
     5
170
     0
171
     0
290
     0
174
     0
 93
       13
 44
0.0
173
     0
291
     1
 45
0.0
1001
ACAD
1000
AcDbSavedByObjectVersion
1070
     0
  0
VISUALSTYLE
  5
1086
102
{ACAD_XDICTIONARY
360
39EE
102
}
102
{ACAD_REACTORS
330
1082
102
}
330
1082
100
AcDbVisualStyle
  2
GouraudWithEdges
 70
     3
 71
     2
 72
     2
 73
     1
 90
        2
 40
-0.6
 41
30.0
 62
     5
 63
     7
 74
     1
 91
        0
 64
     7
 65
   257
 75
     1
175
     1
 42
1.0
 92
        0
 66
   257
 43
1.0
 76
     1
 77
     6
 78
     2
 67
     7
 79
     5
170
     0
171
     0
290
     0
174
     0
 93
       13
 44
0.0
173
     0
291
     1
 45
0.0
1001
ACAD
1000
AcDbSavedByObjectVersion
1070
     0
  0
VISUALSTYLE
  5
108A
102
{ACAD_XDICTIONARY
360
39F6
102
}
102
{ACAD_REACTORS
330
1082
102
}
330
1082
100
AcDbVisualStyle
  2
Hidden
 70
     6
 71
     1
 72
     2
 73
     2
 90
        0
 40
-0.6
 41
-30.0
 62
     5
 63
     7
 74
     2
 91
        2
 64
     7
 65
   257
 75
     2
175
     1
 42
40.0
 92
        0
 66
   257
 43
1.0
 76
     1
 77
     6
 78
     2
 67
     7
 79
     3
170
     0
171
     0
290
     0
174
     0
 93
        1
 44
0.0
173
     0
291
     0
 45
0.0
1001
ACAD
1000
AcDbSavedByObjectVersion
1070
     0
  0
VISUALSTYLE
  5
1098
102
{ACAD_XDICTIONARY
360
3A12
102
}
102
{ACAD_REACTORS
330
1082
102
}
330
1082
100
AcDbVisualStyle
  2
JitterOff
 70
    20
 71
     2
 72
     2
 73
     0
 90
        0
 40
-0.6
 41
-30.0
 62
     5
 63
     7
 74
     1
 91
        4
 64
     7
 65
   257
 75
     1
175
     1
 42
1.0
 92
       10
 66
     7
 43
1.0
 76
     1
 77
     6
 78
     2
 67
     7
 79
     5
170
     0
171
     0
290
     0
174
     0
 93
        1
 44
0.0
173
     0
291
     1
 45
0.0
1001
ACAD
1000
AcDbSavedByObjectVersion
1070
     0
  0
VISUALSTYLE
  5
1090
102
{ACAD_XDICTIONARY
360
3A02
102
}
102
{ACAD_REACTORS
330
1082
102
}
330
1082
100
AcDbVisualStyle
  2
Linepattern
 70
    14
 71
     2
 72
     2
 73
     0
 90
        0
 40
-0.6
 41
-30.0
 62
     5
 63
     7
 74
     1
 91
        4
 64
     7
 65
   257
 75
     7
175
     7
 42
1.0
 92
        8
 66
     7
 43
1.0
 76
     1
 77
     6
 78
     2
 67
     7
 79
     5
170
     0
171
     0
290
     0
174
     0
 93
        1
 44
0.0
173
     0
291
     1
 45
0.0
1001
ACAD
1000
AcDbSavedByObjectVersion
1070
     0
  0
VISUALSTYLE
  5
1099
102
{ACAD_XDICTIONARY
360
3A14
102
}
102
{ACAD_REACTORS
330
1082
102
}
330
1082
100
AcDbVisualStyle
  2
OverhangOff
 70
    21
 71
     2
 72
     2
 73
     0
 90
        0
 40
-0.6
 41
-30.0
 62
     5
 63
     7
 74
     1
 91
        4
 64
     7
 65
   257
 75
     1
175
     1
 42
1.0
 92
        9
 66
     7
 43
1.0
 76
     1
 77
     6
 78
     2
 67
     7
 79
     5
170
     0
171
     0
290
     0
174
     0
 93
        1
 44
0.0
173
     0
291
     1
 45
0.0
1001
ACAD
1000
AcDbSavedByObjectVersion
1070
     0
  0
VISUALSTYLE
  5
108C
102
{ACAD_XDICTIONARY
360
39FA
102
}
102
{ACAD_REACTORS
330
1082
102
}
330
1082
100
AcDbVisualStyle
  2
Realistic
 70
     8
 71
     2
 72
     2
 73
     0
 90
        2
 40
-0.6
 41
30.0
 62
     5
 63
     7
 74
     0
 91
        0
 64
     7
 65
   257
 75
     1
175
     1
 42
1.0
 92
        8
 66
   257
 43
1.0
 76
     1
 77
     6
 78
     2
 67
     7
 79
     3
170
     0
171
     0
290
     0
174
     0
 93
       13
 44
0.0
173
     0
291
     0
 45
0.0
1001
ACAD
1000
AcDbSavedByObjectVersion
1070
     0
  0
VISUALSTYLE
  5
1097
102
{ACAD_XDICTIONARY
360
3A10
102
}
102
{ACAD_REACTORS
330
1082
102
}
330
1082
100
AcDbVisualStyle
  2
Shaded
 70
    27
 71
     2
 72
     2
 73
     1
 90
        2
 40
-0.6
 41
30.0
 62
     5
 63
     7
 74
     0
 91
        4
 64
     7
 65
   257
 75
     1
175
     1
 42
1.0
 92
        8
 66
   257
 43
1.0
 76
     1
 77
     6
 78
     2
 67
     8
 79
     3
170
     0
171
     0
290
     0
174
     0
 93
        5
 44
0.0
173
     0
291
     0
 45
0.0
1001
ACAD
1000
AcDbSavedByObjectVersion
1070
     0
  0
VISUALSTYLE
  5
1096
102
{ACAD_XDICTIONARY
360
3A0E
102
}
102
{ACAD_REACTORS
330
1082
102
}
330
1082
100
AcDbVisualStyle
  2
Shaded with edges
 70
    26
 71
     2
 72
     2
 73
     1
 90
        2
 40
-0.6
 41
30.0
 62
     5
 63
     7
 74
     1
 91
       10
 64
     7
 65
   257
 75
     2
175
     1
 42
1.0
 92
        8
 66
   257
 43
1.0
 76
     1
 77
     6
 78
     2
 67
     7
 79
     3
170
     0
171
     0
290
     0
174
     0
 93
        5
 44
0.0
173
     0
291
     0
 45
0.0
1001
ACAD
1000
AcDbSavedByObjectVersion
1070
     0
  0
VISUALSTYLE
  5
1093
102
{ACAD_XDICTIONARY
360
3A08
102
}
102
{ACAD_REACTORS
330
1082
102
}
330
1082
100
AcDbVisualStyle
  2
Shades of Gray
 70
    23
 71
     2
 72
     2
 73
     3
 90
        0
 40
-0.6
 41
-30.0
 62
     5
 63
     7
 74
     2
 91
        2
 64
     7
 65
     7
 75
     1
175
     1
 42
40.0
 92
        8
 66
     7
 43
1.0
 76
     1
 77
     6
 78
     2
 67
     7
 79
     3
170
     0
171
     0
290
     0
174
     0
 93
        1
 44
0.0
173
     0
291
     0
 45
0.0
1001
ACAD
1000
AcDbSavedByObjectVersion
1070
     0
  0
VISUALSTYLE
  5
1094
102
{ACAD_XDICTIONARY
360
3A0A
102
}
102
{ACAD_REACTORS
330
1082
102
}
330
1082
100
AcDbVisualStyle
  2
Sketchy
 70
    24
 71
     1
 72
     2
 73
     2
 90
        0
 40
-0.6
 41
-30.0
 62
     5
 63
     7
 74
     2
 91
        2
 64
     7
 65
     7
 75
     1
175
     1
 42
40.0
 92
       11
 66
     7
 43
1.0
 76
     1
 77
     6
 78
     2
 67
     7
 79
     6
170
     0
171
     0
290
     0
174
     0
 93
        1
 44
0.0
173
     0
291
     0
 45
0.0
1001
ACAD
1000
AcDbSavedByObjectVersion
1070
     0
  0
VISUALSTYLE
  5
108F
102
{ACAD_XDICTIONARY
360
3A00
102
}
102
{ACAD_REACTORS
330
1082
102
}
330
1082
100
AcDbVisualStyle
  2
Thicken
 70
    13
 71
     2
 72
     2
 73
     0
 90
        0
 40
-0.6
 41
-30.0
 62
     5
 63
     7
 74
     1
 91
        4
 64
     7
 65
   257
 75
     1
175
     1
 42
1.0
 92
       12
 66
     7
 43
1.0
 76
     1
 77
     6
 78
     2
 67
     7
 79
     5
170
     0
171
     0
290
     0
174
     0
 93
        1
 44
0.0
173
     0
291
     1
 45
0.0
1001
ACAD
1000
AcDbSavedByObjectVersion
1070
     0
  0
VISUALSTYLE
  5
1089
102
{ACAD_XDICTIONARY
360
39F4
102
}
102
{ACAD_REACTORS
330
1082
102
}
330
1082
100
AcDbVisualStyle
  2
Wireframe
 70
     5
 71
     0
 72
     2
 73
     0
 90
        0
 40
-0.6
 41
-30.0
 62
     5
 63
     7
 74
     1
 91
        4
 64
     7
 65
   257
 75
     1
175
     1
 42
1.0
 92
        0
 66
   257
 43
1.0
 76
     1
 77
     6
 78
     2
 67
     7
 79
     3
170
     0
171
     0
290
     0
174
     0
 93
        1
 44
0.0
173
     0
291
     0
 45
0.0
1001
ACAD
1000
AcDbSavedByObjectVersion
1070
     0
  0
VISUALSTYLE
  5
1095
102
{ACAD_XDICTIONARY
360
3A0C
102
}
102
{ACAD_REACTORS
330
1082
102
}
330
1082
100
AcDbVisualStyle
  2
X-Ray
 70
    25
 71
     2
 72
     2
 73
     1
 90
        1
 40
0.5
 41
-30.0
 62
     5
 63
     7
 74
     1
 91
        0
 64
     7
 65
   257
 75
     1
175
     1
 42
1.0
 92
        8
 66
     7
 43
1.0
 76
     1
 77
     6
 78
     2
 67
     7
 79
     3
170
     0
171
     0
290
     0
174
     0
 93
       13
 44
0.0
173
     0
291
     0
 45
0.0
1001
ACAD
1000
AcDbSavedByObjectVersion
1070
     0
  0
DICTIONARYVAR
  5
39CC
102
{ACAD_REACTORS
330
3D
102
}
330
3D
100
DictionaryVariables
280
     0
  1
1:1
  0
DICTIONARYVAR
  5
39C9
102
{ACAD_REACTORS
330
3D
102
}
330
3D
100
DictionaryVariables
280
     0
  1
STANDARD
  0
DICTIONARYVAR
  5
1049
102
{ACAD_REACTORS
330
3D
102
}
330
3D
100
DictionaryVariables
280
     0
  1
STANDARD
  0
DICTIONARYVAR
  5
39CA
102
{ACAD_REACTORS
330
3D
102
}
330
3D
100
DictionaryVariables
280
     0
  1
Metric50
  0
DICTIONARYVAR
  5
39CB
102
{ACAD_REACTORS
330
3D
102
}
330
3D
100
DictionaryVariables
280
     0
  1
Metric50
  0
DICTIONARYVAR
  5
3F
102
{ACAD_REACTORS
330
3D
102
}
330
3D
100
DictionaryVariables
280
     0
  1
2
  0
DICTIONARYVAR
  5
3E
102
{ACAD_REACTORS
330
3D
102
}
330
3D
100
DictionaryVariables
280
     0
  1
1
  0
DICTIONARYVAR
  5
39CE
102
{ACAD_REACTORS
330
3D
102
}
330
3D
100
DictionaryVariables
280
     0
  1
0
  0
DICTIONARYVAR
  5
39CD
102
{ACAD_REACTORS
330
3D
102
}
330
3D
100
DictionaryVariables
280
     0
  1
127
  0
DICTIONARYVAR
  5
39D8
102
{ACAD_REACTORS
330
3D
102
}
330
3D
100
DictionaryVariables
280
     0
  1
2
  0
XRECORD
  5
1067
102
{ACAD_REACTORS
330
1066
102
}
330
1066
100
AcDbXrecord
280
     1
  0
DICTIONARY
  5
39DE
330
1E
100
AcDbDictionary
280
     1
281
     1
  3
ACAD_XREC_ROUNDTRIP
360
39DF
  0
DICTIONARY
  5
39E2
330
26
100
AcDbDictionary
280
     1
281
     1
  3
ACAD_XREC_ROUNDTRIP
360
39E3
  0
DICTIONARY
  5
39E0
330
22
100
AcDbDictionary
280
     1
281
     1
  3
ACAD_XREC_ROUNDTRIP
360
39E1
  0
DICTIONARY
  5
1073
330
1072
100
AcDbDictionary
280
     1
281
     1
  3
ACAD_XREC_ROUNDTRIP
360
39E6
  3
BUMPTILE
360
1075
  3
DIFFUSETILE
360
1074
  3
OPACITYTILE
360
1078
  3
REFLECTIONTILE
360
1077
  3
REFRACTIONTILE
360
1079
  3
SPECULARTILE
360
1076
  0
DICTIONARY
  5
106B
330
106A
100
AcDbDictionary
280
     1
281
     1
  3
ACAD_XREC_ROUNDTRIP
360
39E5
  3
BUMPTILE
360
106D
  3
DIFFUSETILE
360
106C
  3
OPACITYTILE
360
1070
  3
REFLECTIONTILE
360
106F
  3
REFRACTIONTILE
360
1071
  3
SPECULARTILE
360
106E
  0
DICTIONARY
  5
107B
330
107A
100
AcDbDictionary
280
     1
281
     1
  3
ACAD_XREC_ROUNDTRIP
360
39E7
  3
BUMPTILE
360
107D
  3
DIFFUSETILE
360
107C
  3
OPACITYTILE
360
1080
  3
REFLECTIONTILE
360
107F
  3
REFRACTIONTILE
360
1081
  3
SPECULARTILE
360
107E
  0
DICTIONARY
  5
3A18
330
10AE
100
AcDbDictionary
280
     1
281
     1
  3
ACAD_XREC_ROUNDTRIP
360
3A19
  0
DICTIONARY
  5
3979
330
EE8
100
AcDbDictionary
280
     1
281
     1
  3
ACAD_ROUNDTRIP_2008_TABLESTYLE_CELLSTYLEMAP
360
39D9
  3
ACAD_XREC_ROUNDTRIP
360
39E4
  0
DICTIONARY
  5
39F2
330
1088
100
AcDbDictionary
280
     1
281
     1
  3
ACAD_XREC_ROUNDTRIP
360
39F3
  0
DICTIONARY
  5
39F0
330
1087
100
AcDbDictionary
280
     1
281
     1
  3
ACAD_XREC_ROUNDTRIP
360
39F1
  0
DICTIONARY
  5
39FE
330
108E
100
AcDbDictionary
280
     1
281
     1
  3
ACAD_XREC_ROUNDTRIP
360
39FF
  0
DICTIONARY
  5
3A06
330
1092
100
AcDbDictionary
280
     1
281
     1
  3
ACAD_XREC_ROUNDTRIP
360
3A07
  0
DICTIONARY
  5
39F8
330
108B
100
AcDbDictionary
280
     1
281
     1
  3
ACAD_XREC_ROUNDTRIP
360
39F9
  0
DICTIONARY
  5
39FC
330
108D
100
AcDbDictionary
280
     1
281
     1
  3
ACAD_XREC_ROUNDTRIP
360
39FD
  0
DICTIONARY
  5
3A16
330
109A
100
AcDbDictionary
280
     1
281
     1
  3
ACAD_XREC_ROUNDTRIP
360
3A17
  0
DICTIONARY
  5
3A04
330
1091
100
AcDbDictionary
280
     1
281
     1
  3
ACAD_XREC_ROUNDTRIP
360
3A05
  0
DICTIONARY
  5
39E8
330
1083
100
AcDbDictionary
280
     1
281
     1
  3
ACAD_XREC_ROUNDTRIP
360
39E9
  0
DICTIONARY
  5
39EA
330
1084
100
AcDbDictionary
280
     1
281
     1
  3
ACAD_XREC_ROUNDTRIP
360
39EB
  0
DICTIONARY
  5
39EC
330
1085
100
AcDbDictionary
280
     1
281
     1
  3
ACAD_XREC_ROUNDTRIP
360
39ED
  0
DICTIONARY
  5
39EE
330
1086
100
AcDbDictionary
280
     1
281
     1
  3
ACAD_XREC_ROUNDTRIP
360
39EF
  0
DICTIONARY
  5
39F6
330
108A
100
AcDbDictionary
280
     1
281
     1
  3
ACAD_XREC_ROUNDTRIP
360
39F7
  0
DICTIONARY
  5
3A12
330
1098
100
AcDbDictionary
280
     1
281
     1
  3
ACAD_XREC_ROUNDTRIP
360
3A13
  0
DICTIONARY
  5
3A02
330
1090
100
AcDbDictionary
280
     1
281
     1
  3
ACAD_XREC_ROUNDTRIP
360
3A03
  0
DICTIONARY
  5
3A14
330
1099
100
AcDbDictionary
280
     1
281
     1
  3
ACAD_XREC_ROUNDTRIP
360
3A15
  0
DICTIONARY
  5
39FA
330
108C
100
AcDbDictionary
280
     1
281
     1
  3
ACAD_XREC_ROUNDTRIP
360
39FB
  0
DICTIONARY
  5
3A10
330
1097
100
AcDbDictionary
280
     1
281
     1
  3
ACAD_XREC_ROUNDTRIP
360
3A11
  0
DICTIONARY
  5
3A0E
330
1096
100
AcDbDictionary
280
     1
281
     1
  3
ACAD_XREC_ROUNDTRIP
360
3A0F
  0
DICTIONARY
  5
3A08
330
1093
100
AcDbDictionary
280
     1
281
     1
  3
ACAD_XREC_ROUNDTRIP
360
3A09
  0
DICTIONARY
  5
3A0A
330
1094
100
AcDbDictionary
280
     1
281
     1
  3
ACAD_XREC_ROUNDTRIP
360
3A0B
  0
DICTIONARY
  5
3A00
330
108F
100
AcDbDictionary
280
     1
281
     1
  3
ACAD_XREC_ROUNDTRIP
360
3A01
  0
DICTIONARY
  5
39F4
330
1089
100
AcDbDictionary
280
     1
281
     1
  3
ACAD_XREC_ROUNDTRIP
360
39F5
  0
DICTIONARY
  5
3A0C
330
1095
100
AcDbDictionary
280
     1
281
     1
  3
ACAD_XREC_ROUNDTRIP
360
3A0D
  0
XRECORD
  5
39DF
102
{ACAD_REACTORS
330
39DE
102
}
330
39DE
100
AcDbXrecord
280
     1
102
SHADEPLOT
 70
     0
102
SHADEPLOTRESLEVEL
 70
     2
102
SHADEPLOTCUSTOMDPI
 70
   300
  0
XRECORD
  5
39E3
102
{ACAD_REACTORS
330
39E2
102
}
330
39E2
100
AcDbXrecord
280
     1
102
SHADEPLOT
 70
     0
102
SHADEPLOTRESLEVEL
 70
     2
102
SHADEPLOTCUSTOMDPI
 70
   300
  0
XRECORD
  5
39E1
102
{ACAD_REACTORS
330
39E0
102
}
330
39E0
100
AcDbXrecord
280
     1
102
SHADEPLOT
 70
     0
102
SHADEPLOTRESLEVEL
 70
     2
102
SHADEPLOTCUSTOMDPI
 70
   300
  0
XRECORD
  5
39E6
102
{ACAD_REACTORS
330
1073
102
}
330
1073
100
AcDbXrecord
280
     1
102
MATERIAL
148
0.0
149
0.0
149
0.0
 93
        0
 94
      127
282
     0
 72
     0
 77
     0
171
     0
175
     0
179
     0
273
     0
  0
XRECORD
  5
1075
102
{ACAD_REACTORS
330
1073
102
}
330
1073
100
AcDbXrecord
280
     1
270
     1
271
     1
  0
XRECORD
  5
1074
102
{ACAD_REACTORS
330
1073
102
}
330
1073
100
AcDbXrecord
280
     1
270
     1
271
     1
  0
XRECORD
  5
1078
102
{ACAD_REACTORS
330
1073
102
}
330
1073
100
AcDbXrecord
280
     1
270
     1
271
     1
  0
XRECORD
  5
1077
102
{ACAD_REACTORS
330
1073
102
}
330
1073
100
AcDbXrecord
280
     1
270
     1
271
     1
  0
XRECORD
  5
1079
102
{ACAD_REACTORS
330
1073
102
}
330
1073
100
AcDbXrecord
280
     1
270
     1
271
     1
  0
XRECORD
  5
1076
102
{ACAD_REACTORS
330
1073
102
}
330
1073
100
AcDbXrecord
280
     1
270
     1
271
     1
  0
XRECORD
  5
39E5
102
{ACAD_REACTORS
330
106B
102
}
330
106B
100
AcDbXrecord
280
     1
102
MATERIAL
148
0.0
149
0.0
149
0.0
 93
        0
 94
      127
282
     0
 72
     0
 77
     0
171
     0
175
     0
179
     0
273
     0
  0
XRECORD
  5
106D
102
{ACAD_REACTORS
330
106B
102
}
330
106B
100
AcDbXrecord
280
     1
270
     1
271
     1
  0
XRECORD
  5
106C
102
{ACAD_REACTORS
330
106B
102
}
330
106B
100
AcDbXrecord
280
     1
270
     1
271
     1
  0
XRECORD
  5
1070
102
{ACAD_REACTORS
330
106B
102
}
330
106B
100
AcDbXrecord
280
     1
270
     1
271
     1
  0
XRECORD
  5
106F
102
{ACAD_REACTORS
330
106B
102
}
330
106B
100
AcDbXrecord
280
     1
270
     1
271
     1
  0
XRECORD
  5
1071
102
{ACAD_REACTORS
330
106B
102
}
330
106B
100
AcDbXrecord
280
     1
270
     1
271
     1
  0
XRECORD
  5
106E
102
{ACAD_REACTORS
330
106B
102
}
330
106B
100
AcDbXrecord
280
     1
270
     1
271
     1
  0
XRECORD
  5
39E7
102
{ACAD_REACTORS
330
107B
102
}
330
107B
100
AcDbXrecord
280
     1
102
MATERIAL
148
0.0
149
0.0
149
0.0
 93
        0
 94
      127
282
     0
 72
     0
 77
     0
171
     0
175
     0
179
     0
273
     0
  0
XRECORD
  5
107D
102
{ACAD_REACTORS
330
107B
102
}
330
107B
100
AcDbXrecord
280
     1
270
     1
271
     1
  0
XRECORD
  5
107C
102
{ACAD_REACTORS
330
107B
102
}
330
107B
100
AcDbXrecord
280
     1
270
     1
271
     1
  0
XRECORD
  5
1080
102
{ACAD_REACTORS
330
107B
102
}
330
107B
100
AcDbXrecord
280
     1
270
     1
271
     1
  0
XRECORD
  5
107F
102
{ACAD_REACTORS
330
107B
102
}
330
107B
100
AcDbXrecord
280
     1
270
     1
271
     1
  0
XRECORD
  5
1081
102
{ACAD_REACTORS
330
107B
102
}
330
107B
100
AcDbXrecord
280
     1
270
     1
271
     1
  0
XRECORD
  5
107E
102
{ACAD_REACTORS
330
107B
102
}
330
107B
100
AcDbXrecord
280
     1
270
     1
271
     1
  0
XRECORD
  5
3A19
102
{ACAD_REACTORS
330
3A18
102
}
330
3A18
100
AcDbXrecord
280
     1
102
ACAD_ROUNDTRIP_2012_MLEADER_STYLE
298
     1
  0
CELLSTYLEMAP
  5
39D9
102
{ACAD_REACTORS
330
3979
102
}
330
3979
100
AcDbCellStyleMap
 90
        3
300
CELLSTYLE
  1
TABLEFORMAT_BEGIN
 90
        5
170
     1
 91
        0
 92
    32768
 62
   257
 93
        1
300
CONTENTFORMAT
  1
CONTENTFORMAT_BEGIN
 90
        0
 91
        0
 92
        4
 93
        0
300

 40
0.0
140
1.0
 94
        5
 62
     0
340
11
144
6.0
309
CONTENTFORMAT_END
171
     1
301
MARGIN
  1
CELLMARGIN_BEGIN
 40
1.5
 40
1.5
 40
1.5
 40
1.5
 40
0.18
 40
0.18
309
CELLMARGIN_END
 94
        6
 95
        1
302
GRIDFORMAT
  1
GRIDFORMAT_BEGIN
 90
        0
 91
        1
 62
     0
 92
       -2
340
0
 93
        0
 40
0.045
309
GRIDFORMAT_END
 95
        2
302
GRIDFORMAT
  1
GRIDFORMAT_BEGIN
 90
        0
 91
        1
 62
     0
 92
       -2
340
0
 93
        0
 40
0.045
309
GRIDFORMAT_END
 95
        4
302
GRIDFORMAT
  1
GRIDFORMAT_BEGIN
 90
        0
 91
        1
 62
     0
 92
       -2
340
0
 93
        0
 40
0.045
309
GRIDFORMAT_END
 95
        8
302
GRIDFORMAT
  1
GRIDFORMAT_BEGIN
 90
        0
 91
        1
 62
     0
 92
       -2
340
0
 93
        0
 40
0.045
309
GRIDFORMAT_END
 95
       16
302
GRIDFORMAT
  1
GRIDFORMAT_BEGIN
 90
        0
 91
        1
 62
     0
 92
       -2
340
0
 93
        0
 40
0.045
309
GRIDFORMAT_END
 95
       32
302
GRIDFORMAT
  1
GRIDFORMAT_BEGIN
 90
        0
 91
        1
 62
     0
 92
       -2
340
0
 93
        0
 40
0.045
309
GRIDFORMAT_END
309
TABLEFORMAT_END
  1
CELLSTYLE_BEGIN
 90
        1
 91
        1
300
_TITLE
309
CELLSTYLE_END
300
CELLSTYLE
  1
TABLEFORMAT_BEGIN
 90
        5
170
     1
 91
        0
 92
        0
 62
   257
 93
        1
300
CONTENTFORMAT
  1
CONTENTFORMAT_BEGIN
 90
        0
 91
        0
 92
        4
 93
        0
300

 40
0.0
140
1.0
 94
        5
 62
     0
340
11
144
4.5
309
CONTENTFORMAT_END
171
     1
301
MARGIN
  1
CELLMARGIN_BEGIN
 40
1.5
 40
1.5
 40
1.5
 40
1.5
 40
0.18
 40
0.18
309
CELLMARGIN_END
 94
        6
 95
        1
302
GRIDFORMAT
  1
GRIDFORMAT_BEGIN
 90
        0
 91
        1
 62
     0
 92
       -2
340
0
 93
        0
 40
0.045
309
GRIDFORMAT_END
 95
        2
302
GRIDFORMAT
  1
GRIDFORMAT_BEGIN
 90
        0
 91
        1
 62
     0
 92
       -2
340
0
 93
        0
 40
0.045
309
GRIDFORMAT_END
 95
        4
302
GRIDFORMAT
  1
GRIDFORMAT_BEGIN
 90
        0
 91
        1
 62
     0
 92
       -2
340
0
 93
        0
 40
0.045
309
GRIDFORMAT_END
 95
        8
302
GRIDFORMAT
  1
GRIDFORMAT_BEGIN
 90
        0
 91
        1
 62
     0
 92
       -2
340
0
 93
        0
 40
0.045
309
GRIDFORMAT_END
 95
       16
302
GRIDFORMAT
  1
GRIDFORMAT_BEGIN
 90
        0
 91
        1
 62
     0
 92
       -2
340
0
 93
        0
 40
0.045
309
GRIDFORMAT_END
 95
       32
302
GRIDFORMAT
  1
GRIDFORMAT_BEGIN
 90
        0
 91
        1
 62
     0
 92
       -2
340
0
 93
        0
 40
0.045
309
GRIDFORMAT_END
309
TABLEFORMAT_END
  1
CELLSTYLE_BEGIN
 90
        2
 91
        1
300
_HEADER
309
CELLSTYLE_END
300
CELLSTYLE
  1
TABLEFORMAT_BEGIN
 90
        5
170
     1
 91
        0
 92
        0
 62
   257
 93
        1
300
CONTENTFORMAT
  1
CONTENTFORMAT_BEGIN
 90
        0
 91
        0
 92
        4
 93
        0
300

 40
0.0
140
1.0
 94
        2
 62
     0
340
11
144
4.5
309
CONTENTFORMAT_END
171
     1
301
MARGIN
  1
CELLMARGIN_BEGIN
 40
1.5
 40
1.5
 40
1.5
 40
1.5
 40
0.18
 40
0.18
309
CELLMARGIN_END
 94
        6
 95
        1
302
GRIDFORMAT
  1
GRIDFORMAT_BEGIN
 90
        0
 91
        1
 62
     0
 92
       -2
340
0
 93
        0
 40
0.045
309
GRIDFORMAT_END
 95
        2
302
GRIDFORMAT
  1
GRIDFORMAT_BEGIN
 90
        0
 91
        1
 62
     0
 92
       -2
340
0
 93
        0
 40
0.045
309
GRIDFORMAT_END
 95
        4
302
GRIDFORMAT
  1
GRIDFORMAT_BEGIN
 90
        0
 91
        1
 62
     0
 92
       -2
340
0
 93
        0
 40
0.045
309
GRIDFORMAT_END
 95
        8
302
GRIDFORMAT
  1
GRIDFORMAT_BEGIN
 90
        0
 91
        1
 62
     0
 92
       -2
340
0
 93
        0
 40
0.045
309
GRIDFORMAT_END
 95
       16
302
GRIDFORMAT
  1
GRIDFORMAT_BEGIN
 90
        0
 91
        1
 62
     0
 92
       -2
340
0
 93
        0
 40
0.045
309
GRIDFORMAT_END
 95
       32
302
GRIDFORMAT
  1
GRIDFORMAT_BEGIN
 90
        0
 91
        1
 62
     0
 92
       -2
340
0
 93
        0
 40
0.045
309
GRIDFORMAT_END
309
TABLEFORMAT_END
  1
CELLSTYLE_BEGIN
 90
        3
 91
        2
300
_DATA
309
CELLSTYLE_END
  0
XRECORD
  5
39E4
102
{ACAD_REACTORS
330
3979
102
}
330
3979
100
AcDbXrecord
280
     1
102
ACAD_ROUNDTRIP_PRE2007_TABLESTYLE
 90
        4
 91
        0
  1

 92
        4
 93
        0
  2

 94
        4
 95
        0
  3

  0
XRECORD
  5
39F3
102
{ACAD_REACTORS
330
39F2
102
}
330
39F2
100
AcDbXrecord
280
     1
102
RTVSPost2010Prop28
280
     1
102
RTVSPost2010PropOp28
 70
     1
102
RTVSPost2010Prop29
280
     1
102
RTVSPost2010PropOp29
 70
     1
102
RTVSPost2010Prop30
280
     0
102
RTVSPost2010PropOp30
 70
     1
102
RTVSPost2010Prop31
280
     0
102
RTVSPost2010PropOp31
 70
     1
102
RTVSPost2010Prop32
280
     0
102
RTVSPost2010PropOp32
 70
     1
102
RTVSPost2010Prop33
280
     0
102
RTVSPost2010PropOp33
 70
     1
102
RTVSPost2010Prop34
280
     0
102
RTVSPost2010PropOp34
 70
     1
102
RTVSPost2010Prop35
280
     0
102
RTVSPost2010PropOp35
 70
     1
102
RTVSPost2010Prop36
280
     0
102
RTVSPost2010PropOp36
 70
     1
102
RTVSPost2010Prop37
 90
       50
102
RTVSPost2010PropOp37
 70
     1
102
RTVSPost2010Prop38
140
0.0
102
RTVSPost2010PropOp38
 70
     1
102
RTVSPost2010Prop39
140
1.0
102
RTVSPost2010PropOp39
 70
     1
102
RTVSPost2010Prop40
 90
        0
102
RTVSPost2010PropOp40
 70
     1
102
RTVSPost2010Prop41ColorIndex
 90
       18
102
RTVSPost2010Prop41ColorRGB
 90
        0
102
RTVSPost2010PropOp41
 70
     1
102
RTVSPost2010Prop42
 90
       50
102
RTVSPost2010PropOp42
 70
     1
102
RTVSPost2010Prop43
 90
        3
102
RTVSPost2010PropOp43
 70
     1
102
RTVSPost2010Prop44ColorIndex
 90
        5
102
RTVSPost2010Prop44ColorRGB
 90
      255
102
RTVSPost2010PropOp44
 70
     1
102
RTVSPost2010Prop45
280
     0
102
RTVSPost2010PropOp45
 70
     1
102
RTVSPost2010Prop46
 90
       50
102
RTVSPost2010PropOp46
 70
     1
102
RTVSPost2010Prop47
 90
       50
102
RTVSPost2010PropOp47
 70
     1
102
RTVSPost2010Prop48
 90
       50
102
RTVSPost2010PropOp48
 70
     1
102
RTVSPost2010Prop49
280
     0
102
RTVSPost2010PropOp49
 70
     1
102
RTVSPost2010Prop50
 90
       50
102
RTVSPost2010PropOp50
 70
     1
102
RTVSPost2010Prop51ColorIndex
 90
      256
102
RTVSPost2010Prop51ColorRGB
 90
-16777216
102
RTVSPost2010PropOp51
 70
     0
102
RTVSPost2010Prop52
140
1.0
102
RTVSPost2010PropOp52
 70
     0
102
RTVSPost2010Prop53
 90
        2
102
RTVSPost2010PropOp53
 70
     1
102
RTVSPost2010Prop54
  1
strokes_ogs.tif
102
RTVSPost2010PropOp54
 70
     1
102
RTVSPost2010Prop55
280
     0
102
RTVSPost2010PropOp55
 70
     1
102
RTVSPost2010Prop56
140
1.0
102
RTVSPost2010PropOp56
 70
     1
102
RTVSPost2010Prop57
140
1.0
102
RTVSPost2010PropOp57
 70
     1
102
RTVSPropertyOp0
 70
     1
102
RTVSPropertyOp1
 70
     1
102
RTVSPropertyOp2
 70
     1
102
RTVSPropertyOp3
 70
     1
102
RTVSPropertyOp4
 70
     1
102
RTVSPropertyOp5
 70
     1
102
RTVSPropertyOp6
 70
     1
102
RTVSPropertyOp7
 70
     1
102
RTVSPropertyOp8
 70
     1
102
RTVSPropertyOp9
 70
     1
102
RTVSPropertyOp10
 70
     1
102
RTVSPropertyOp11
 70
     1
102
RTVSPropertyOp12
 70
     1
102
RTVSPropertyOp13
 70
     1
102
RTVSPropertyOp14
 70
     1
102
RTVSPropertyOp15
 70
     1
102
RTVSPropertyOp16
 70
     1
102
RTVSPropertyOp17
 70
     1
102
RTVSPropertyOp18
 70
     1
102
RTVSPropertyOp19
 70
     1
102
RTVSPropertyOp20
 70
     1
102
RTVSPropertyOp21
 70
     1
102
RTVSPropertyOp22
 70
     1
102
RTVSPropertyOp23
 70
     1
102
RTVSPropertyOp24
 70
     1
102
RTVSPropertyOp25
 70
     1
102
RTVSPropertyOp26
 70
     1
102
RTVSPropertyOp27
 70
     1
102
RTVSPropertyOp28
 70
     1
102
RTVSPropertyOp29
 70
     1
102
RTVSPropertyOp30
 70
     1
102
RTVSPropertyOp31
 70
     1
102
RTVSPropertyOp32
 70
     1
102
RTVSPropertyOp33
 70
     1
102
RTVSPropertyOp34
 70
     1
102
RTVSPropertyOp35
 70
     1
102
RTVSPropertyOp36
 70
     1
102
RTVSPropertyOp37
 70
     1
102
RTVSPropertyOp38
 70
     1
102
RTVSPropertyOp39
 70
     1
102
RTVSPropertyOp40
 70
     1
102
RTVSPropertyOp41
 70
     1
102
RTVSPropertyOp42
 70
     1
102
RTVSPropertyOp43
 70
     1
102
RTVSPropertyOp44
 70
     1
102
RTVSPropertyOp45
 70
     1
102
RTVSPropertyOp46
 70
     1
102
RTVSPropertyOp47
 70
     1
102
RTVSPropertyOp48
 70
     1
102
RTVSPropertyOp49
 70
     1
102
RTVSPropertyOp50
 70
     1
102
RTVSPropertyOp51
 70
     0
102
RTVSPropertyOp52
 70
     0
102
RTVSPropertyOp53
 70
     1
102
RTVSPropertyOp54
 70
     1
102
RTVSPropertyOp55
 70
     1
102
RTVSPropertyOp56
 70
     1
102
RTVSPropertyOp57
 70
     1
102
RTVSPropertyOp58
 70
     1
102
RTVSPropertyOp59
 70
     1
102
RTVSPropertyOp60
 70
     1
102
RTVSPropertyOp61
 70
     1
102
RTVSPropertyOp62
 70
     1
  0
XRECORD
  5
39F1
102
{ACAD_REACTORS
330
39F0
102
}
330
39F0
100
AcDbXrecord
280
     1
102
RTVSPost2010Prop28
280
     0
102
RTVSPost2010PropOp28
 70
     1
102
RTVSPost2010Prop29
280
     1
102
RTVSPost2010PropOp29
 70
     1
102
RTVSPost2010Prop30
280
     1
102
RTVSPost2010PropOp30
 70
     1
102
RTVSPost2010Prop31
280
     0
102
RTVSPost2010PropOp31
 70
     1
102
RTVSPost2010Prop32
280
     0
102
RTVSPost2010PropOp32
 70
     1
102
RTVSPost2010Prop33
280
     0
102
RTVSPost2010PropOp33
 70
     1
102
RTVSPost2010Prop34
280
     0
102
RTVSPost2010PropOp34
 70
     1
102
RTVSPost2010Prop35
280
     0
102
RTVSPost2010PropOp35
 70
     1
102
RTVSPost2010Prop36
280
     0
102
RTVSPost2010PropOp36
 70
     1
102
RTVSPost2010Prop37
 90
       50
102
RTVSPost2010PropOp37
 70
     1
102
RTVSPost2010Prop38
140
0.0
102
RTVSPost2010PropOp38
 70
     1
102
RTVSPost2010Prop39
140
1.0
102
RTVSPost2010PropOp39
 70
     1
102
RTVSPost2010Prop40
 90
        0
102
RTVSPost2010PropOp40
 70
     1
102
RTVSPost2010Prop41ColorIndex
 90
       18
102
RTVSPost2010Prop41ColorRGB
 90
        0
102
RTVSPost2010PropOp41
 70
     1
102
RTVSPost2010Prop42
 90
       50
102
RTVSPost2010PropOp42
 70
     1
102
RTVSPost2010Prop43
 90
        3
102
RTVSPost2010PropOp43
 70
     1
102
RTVSPost2010Prop44ColorIndex
 90
        5
102
RTVSPost2010Prop44ColorRGB
 90
      255
102
RTVSPost2010PropOp44
 70
     1
102
RTVSPost2010Prop45
280
     0
102
RTVSPost2010PropOp45
 70
     1
102
RTVSPost2010Prop46
 90
       50
102
RTVSPost2010PropOp46
 70
     1
102
RTVSPost2010Prop47
 90
       50
102
RTVSPost2010PropOp47
 70
     1
102
RTVSPost2010Prop48
 90
       50
102
RTVSPost2010PropOp48
 70
     1
102
RTVSPost2010Prop49
280
     0
102
RTVSPost2010PropOp49
 70
     1
102
RTVSPost2010Prop50
 90
       50
102
RTVSPost2010PropOp50
 70
     1
102
RTVSPost2010Prop51ColorIndex
 90
      256
102
RTVSPost2010Prop51ColorRGB
 90
-16777216
102
RTVSPost2010PropOp51
 70
     0
102
RTVSPost2010Prop52
140
1.0
102
RTVSPost2010PropOp52
 70
     0
102
RTVSPost2010Prop53
 90
        2
102
RTVSPost2010PropOp53
 70
     1
102
RTVSPost2010Prop54
  1
strokes_ogs.tif
102
RTVSPost2010PropOp54
 70
     1
102
RTVSPost2010Prop55
280
     0
102
RTVSPost2010PropOp55
 70
     1
102
RTVSPost2010Prop56
140
1.0
102
RTVSPost2010PropOp56
 70
     1
102
RTVSPost2010Prop57
140
1.0
102
RTVSPost2010PropOp57
 70
     1
102
RTVSPropertyOp0
 70
     1
102
RTVSPropertyOp1
 70
     1
102
RTVSPropertyOp2
 70
     1
102
RTVSPropertyOp3
 70
     1
102
RTVSPropertyOp4
 70
     1
102
RTVSPropertyOp5
 70
     1
102
RTVSPropertyOp6
 70
     1
102
RTVSPropertyOp7
 70
     1
102
RTVSPropertyOp8
 70
     1
102
RTVSPropertyOp9
 70
     1
102
RTVSPropertyOp10
 70
     1
102
RTVSPropertyOp11
 70
     1
102
RTVSPropertyOp12
 70
     1
102
RTVSPropertyOp13
 70
     1
102
RTVSPropertyOp14
 70
     1
102
RTVSPropertyOp15
 70
     1
102
RTVSPropertyOp16
 70
     1
102
RTVSPropertyOp17
 70
     1
102
RTVSPropertyOp18
 70
     1
102
RTVSPropertyOp19
 70
     1
102
RTVSPropertyOp20
 70
     1
102
RTVSPropertyOp21
 70
     1
102
RTVSPropertyOp22
 70
     1
102
RTVSPropertyOp23
 70
     1
102
RTVSPropertyOp24
 70
     1
102
RTVSPropertyOp25
 70
     1
102
RTVSPropertyOp26
 70
     1
102
RTVSPropertyOp27
 70
     1
102
RTVSPropertyOp28
 70
     1
102
RTVSPropertyOp29
 70
     1
102
RTVSPropertyOp30
 70
     1
102
RTVSPropertyOp31
 70
     1
102
RTVSPropertyOp32
 70
     1
102
RTVSPropertyOp33
 70
     1
102
RTVSPropertyOp34
 70
     1
102
RTVSPropertyOp35
 70
     1
102
RTVSPropertyOp36
 70
     1
102
RTVSPropertyOp37
 70
     1
102
RTVSPropertyOp38
 70
     1
102
RTVSPropertyOp39
 70
     1
102
RTVSPropertyOp40
 70
     1
102
RTVSPropertyOp41
 70
     1
102
RTVSPropertyOp42
 70
     1
102
RTVSPropertyOp43
 70
     1
102
RTVSPropertyOp44
 70
     1
102
RTVSPropertyOp45
 70
     1
102
RTVSPropertyOp46
 70
     1
102
RTVSPropertyOp47
 70
     1
102
RTVSPropertyOp48
 70
     1
102
RTVSPropertyOp49
 70
     1
102
RTVSPropertyOp50
 70
     1
102
RTVSPropertyOp51
 70
     0
102
RTVSPropertyOp52
 70
     0
102
RTVSPropertyOp53
 70
     1
102
RTVSPropertyOp54
 70
     1
102
RTVSPropertyOp55
 70
     1
102
RTVSPropertyOp56
 70
     1
102
RTVSPropertyOp57
 70
     1
102
RTVSPropertyOp58
 70
     1
102
RTVSPropertyOp59
 70
     1
102
RTVSPropertyOp60
 70
     1
102
RTVSPropertyOp61
 70
     1
102
RTVSPropertyOp62
 70
     1
  0
XRECORD
  5
39FF
102
{ACAD_REACTORS
330
39FE
102
}
330
39FE
100
AcDbXrecord
280
     1
102
RTVSPost2010Prop28
280
     0
102
RTVSPost2010PropOp28
 70
     1
102
RTVSPost2010Prop29
280
     1
102
RTVSPost2010PropOp29
 70
     1
102
RTVSPost2010Prop30
280
     1
102
RTVSPost2010PropOp30
 70
     1
102
RTVSPost2010Prop31
280
     0
102
RTVSPost2010PropOp31
 70
     1
102
RTVSPost2010Prop32
280
     0
102
RTVSPost2010PropOp32
 70
     1
102
RTVSPost2010Prop33
280
     0
102
RTVSPost2010PropOp33
 70
     1
102
RTVSPost2010Prop34
280
     0
102
RTVSPost2010PropOp34
 70
     1
102
RTVSPost2010Prop35
280
     0
102
RTVSPost2010PropOp35
 70
     1
102
RTVSPost2010Prop36
280
     0
102
RTVSPost2010PropOp36
 70
     1
102
RTVSPost2010Prop37
 90
       50
102
RTVSPost2010PropOp37
 70
     1
102
RTVSPost2010Prop38
140
0.0
102
RTVSPost2010PropOp38
 70
     1
102
RTVSPost2010Prop39
140
1.0
102
RTVSPost2010PropOp39
 70
     1
102
RTVSPost2010Prop40
 90
        0
102
RTVSPost2010PropOp40
 70
     1
102
RTVSPost2010Prop41ColorIndex
 90
       18
102
RTVSPost2010Prop41ColorRGB
 90
        0
102
RTVSPost2010PropOp41
 70
     1
102
RTVSPost2010Prop42
 90
       50
102
RTVSPost2010PropOp42
 70
     1
102
RTVSPost2010Prop43
 90
        3
102
RTVSPost2010PropOp43
 70
     1
102
RTVSPost2010Prop44ColorIndex
 90
        5
102
RTVSPost2010Prop44ColorRGB
 90
      255
102
RTVSPost2010PropOp44
 70
     1
102
RTVSPost2010Prop45
280
     0
102
RTVSPost2010PropOp45
 70
     1
102
RTVSPost2010Prop46
 90
       50
102
RTVSPost2010PropOp46
 70
     1
102
RTVSPost2010Prop47
 90
       50
102
RTVSPost2010PropOp47
 70
     1
102
RTVSPost2010Prop48
 90
       50
102
RTVSPost2010PropOp48
 70
     1
102
RTVSPost2010Prop49
280
     0
102
RTVSPost2010PropOp49
 70
     1
102
RTVSPost2010Prop50
 90
       50
102
RTVSPost2010PropOp50
 70
     1
102
RTVSPost2010Prop51ColorIndex
 90
      256
102
RTVSPost2010Prop51ColorRGB
 90
-16777216
102
RTVSPost2010PropOp51
 70
     0
102
RTVSPost2010Prop52
140
1.0
102
RTVSPost2010PropOp52
 70
     0
102
RTVSPost2010Prop53
 90
        2
102
RTVSPost2010PropOp53
 70
     1
102
RTVSPost2010Prop54
  1
strokes_ogs.tif
102
RTVSPost2010PropOp54
 70
     1
102
RTVSPost2010Prop55
280
     0
102
RTVSPost2010PropOp55
 70
     1
102
RTVSPost2010Prop56
140
1.0
102
RTVSPost2010PropOp56
 70
     1
102
RTVSPost2010Prop57
140
1.0
102
RTVSPost2010PropOp57
 70
     1
102
RTVSPropertyOp0
 70
     1
102
RTVSPropertyOp1
 70
     1
102
RTVSPropertyOp2
 70
     1
102
RTVSPropertyOp3
 70
     1
102
RTVSPropertyOp4
 70
     1
102
RTVSPropertyOp5
 70
     1
102
RTVSPropertyOp6
 70
     1
102
RTVSPropertyOp7
 70
     1
102
RTVSPropertyOp8
 70
     1
102
RTVSPropertyOp9
 70
     1
102
RTVSPropertyOp10
 70
     1
102
RTVSPropertyOp11
 70
     1
102
RTVSPropertyOp12
 70
     1
102
RTVSPropertyOp13
 70
     1
102
RTVSPropertyOp14
 70
     1
102
RTVSPropertyOp15
 70
     1
102
RTVSPropertyOp16
 70
     1
102
RTVSPropertyOp17
 70
     1
102
RTVSPropertyOp18
 70
     1
102
RTVSPropertyOp19
 70
     1
102
RTVSPropertyOp20
 70
     1
102
RTVSPropertyOp21
 70
     1
102
RTVSPropertyOp22
 70
     1
102
RTVSPropertyOp23
 70
     1
102
RTVSPropertyOp24
 70
     1
102
RTVSPropertyOp25
 70
     1
102
RTVSPropertyOp26
 70
     1
102
RTVSPropertyOp27
 70
     1
102
RTVSPropertyOp28
 70
     1
102
RTVSPropertyOp29
 70
     1
102
RTVSPropertyOp30
 70
     1
102
RTVSPropertyOp31
 70
     1
102
RTVSPropertyOp32
 70
     1
102
RTVSPropertyOp33
 70
     1
102
RTVSPropertyOp34
 70
     1
102
RTVSPropertyOp35
 70
     1
102
RTVSPropertyOp36
 70
     1
102
RTVSPropertyOp37
 70
     1
102
RTVSPropertyOp38
 70
     1
102
RTVSPropertyOp39
 70
     1
102
RTVSPropertyOp40
 70
     1
102
RTVSPropertyOp41
 70
     1
102
RTVSPropertyOp42
 70
     1
102
RTVSPropertyOp43
 70
     1
102
RTVSPropertyOp44
 70
     1
102
RTVSPropertyOp45
 70
     1
102
RTVSPropertyOp46
 70
     1
102
RTVSPropertyOp47
 70
     1
102
RTVSPropertyOp48
 70
     1
102
RTVSPropertyOp49
 70
     1
102
RTVSPropertyOp50
 70
     1
102
RTVSPropertyOp51
 70
     0
102
RTVSPropertyOp52
 70
     0
102
RTVSPropertyOp53
 70
     1
102
RTVSPropertyOp54
 70
     1
102
RTVSPropertyOp55
 70
     1
102
RTVSPropertyOp56
 70
     1
102
RTVSPropertyOp57
 70
     1
102
RTVSPropertyOp58
 70
     1
102
RTVSPropertyOp59
 70
     1
102
RTVSPropertyOp60
 70
     1
102
RTVSPropertyOp61
 70
     1
102
RTVSPropertyOp62
 70
     1
  0
XRECORD
  5
3A07
102
{ACAD_REACTORS
330
3A06
102
}
330
3A06
100
AcDbXrecord
280
     1
102
RTVSPost2010Prop28
280
     0
102
RTVSPost2010PropOp28
 70
     1
102
RTVSPost2010Prop29
280
     1
102
RTVSPost2010PropOp29
 70
     1
102
RTVSPost2010Prop30
280
     1
102
RTVSPost2010PropOp30
 70
     1
102
RTVSPost2010Prop31
280
     0
102
RTVSPost2010PropOp31
 70
     1
102
RTVSPost2010Prop32
280
     0
102
RTVSPost2010PropOp32
 70
     1
102
RTVSPost2010Prop33
280
     0
102
RTVSPost2010PropOp33
 70
     1
102
RTVSPost2010Prop34
280
     0
102
RTVSPost2010PropOp34
 70
     1
102
RTVSPost2010Prop35
280
     0
102
RTVSPost2010PropOp35
 70
     1
102
RTVSPost2010Prop36
280
     0
102
RTVSPost2010PropOp36
 70
     1
102
RTVSPost2010Prop37
 90
       50
102
RTVSPost2010PropOp37
 70
     1
102
RTVSPost2010Prop38
140
0.0
102
RTVSPost2010PropOp38
 70
     1
102
RTVSPost2010Prop39
140
1.0
102
RTVSPost2010PropOp39
 70
     1
102
RTVSPost2010Prop40
 90
        0
102
RTVSPost2010PropOp40
 70
     1
102
RTVSPost2010Prop41ColorIndex
 90
       18
102
RTVSPost2010Prop41ColorRGB
 90
        0
102
RTVSPost2010PropOp41
 70
     1
102
RTVSPost2010Prop42
 90
       50
102
RTVSPost2010PropOp42
 70
     1
102
RTVSPost2010Prop43
 90
        3
102
RTVSPost2010PropOp43
 70
     1
102
RTVSPost2010Prop44ColorIndex
 90
        5
102
RTVSPost2010Prop44ColorRGB
 90
      255
102
RTVSPost2010PropOp44
 70
     1
102
RTVSPost2010Prop45
280
     0
102
RTVSPost2010PropOp45
 70
     1
102
RTVSPost2010Prop46
 90
       50
102
RTVSPost2010PropOp46
 70
     1
102
RTVSPost2010Prop47
 90
       50
102
RTVSPost2010PropOp47
 70
     1
102
RTVSPost2010Prop48
 90
       50
102
RTVSPost2010PropOp48
 70
     1
102
RTVSPost2010Prop49
280
     0
102
RTVSPost2010PropOp49
 70
     1
102
RTVSPost2010Prop50
 90
       50
102
RTVSPost2010PropOp50
 70
     1
102
RTVSPost2010Prop51ColorIndex
 90
      256
102
RTVSPost2010Prop51ColorRGB
 90
-16777216
102
RTVSPost2010PropOp51
 70
     0
102
RTVSPost2010Prop52
140
1.0
102
RTVSPost2010PropOp52
 70
     0
102
RTVSPost2010Prop53
 90
        2
102
RTVSPost2010PropOp53
 70
     1
102
RTVSPost2010Prop54
  1
strokes_ogs.tif
102
RTVSPost2010PropOp54
 70
     1
102
RTVSPost2010Prop55
280
     0
102
RTVSPost2010PropOp55
 70
     1
102
RTVSPost2010Prop56
140
1.0
102
RTVSPost2010PropOp56
 70
     1
102
RTVSPost2010Prop57
140
1.0
102
RTVSPost2010PropOp57
 70
     1
102
RTVSPropertyOp0
 70
     1
102
RTVSPropertyOp1
 70
     1
102
RTVSPropertyOp2
 70
     1
102
RTVSPropertyOp3
 70
     1
102
RTVSPropertyOp4
 70
     1
102
RTVSPropertyOp5
 70
     1
102
RTVSPropertyOp6
 70
     1
102
RTVSPropertyOp7
 70
     1
102
RTVSPropertyOp8
 70
     1
102
RTVSPropertyOp9
 70
     1
102
RTVSPropertyOp10
 70
     1
102
RTVSPropertyOp11
 70
     1
102
RTVSPropertyOp12
 70
     1
102
RTVSPropertyOp13
 70
     1
102
RTVSPropertyOp14
 70
     1
102
RTVSPropertyOp15
 70
     1
102
RTVSPropertyOp16
 70
     1
102
RTVSPropertyOp17
 70
     1
102
RTVSPropertyOp18
 70
     1
102
RTVSPropertyOp19
 70
     1
102
RTVSPropertyOp20
 70
     1
102
RTVSPropertyOp21
 70
     1
102
RTVSPropertyOp22
 70
     1
102
RTVSPropertyOp23
 70
     1
102
RTVSPropertyOp24
 70
     1
102
RTVSPropertyOp25
 70
     1
102
RTVSPropertyOp26
 70
     1
102
RTVSPropertyOp27
 70
     1
102
RTVSPropertyOp28
 70
     1
102
RTVSPropertyOp29
 70
     1
102
RTVSPropertyOp30
 70
     1
102
RTVSPropertyOp31
 70
     1
102
RTVSPropertyOp32
 70
     1
102
RTVSPropertyOp33
 70
     1
102
RTVSPropertyOp34
 70
     1
102
RTVSPropertyOp35
 70
     1
102
RTVSPropertyOp36
 70
     1
102
RTVSPropertyOp37
 70
     1
102
RTVSPropertyOp38
 70
     1
102
RTVSPropertyOp39
 70
     1
102
RTVSPropertyOp40
 70
     1
102
RTVSPropertyOp41
 70
     1
102
RTVSPropertyOp42
 70
     1
102
RTVSPropertyOp43
 70
     1
102
RTVSPropertyOp44
 70
     1
102
RTVSPropertyOp45
 70
     1
102
RTVSPropertyOp46
 70
     1
102
RTVSPropertyOp47
 70
     1
102
RTVSPropertyOp48
 70
     1
102
RTVSPropertyOp49
 70
     1
102
RTVSPropertyOp50
 70
     1
102
RTVSPropertyOp51
 70
     0
102
RTVSPropertyOp52
 70
     0
102
RTVSPropertyOp53
 70
     1
102
RTVSPropertyOp54
 70
     1
102
RTVSPropertyOp55
 70
     1
102
RTVSPropertyOp56
 70
     1
102
RTVSPropertyOp57
 70
     1
102
RTVSPropertyOp58
 70
     1
102
RTVSPropertyOp59
 70
     1
102
RTVSPropertyOp60
 70
     1
102
RTVSPropertyOp61
 70
     1
102
RTVSPropertyOp62
 70
     1
  0
XRECORD
  5
39F9
102
{ACAD_REACTORS
330
39F8
102
}
330
39F8
100
AcDbXrecord
280
     1
102
RTVSPost2010Prop28
280
     0
102
RTVSPost2010PropOp28
 70
     1
102
RTVSPost2010Prop29
280
     1
102
RTVSPost2010PropOp29
 70
     1
102
RTVSPost2010Prop30
280
     1
102
RTVSPost2010PropOp30
 70
     1
102
RTVSPost2010Prop31
280
     0
102
RTVSPost2010PropOp31
 70
     1
102
RTVSPost2010Prop32
280
     0
102
RTVSPost2010PropOp32
 70
     1
102
RTVSPost2010Prop33
280
     0
102
RTVSPost2010PropOp33
 70
     1
102
RTVSPost2010Prop34
280
     0
102
RTVSPost2010PropOp34
 70
     1
102
RTVSPost2010Prop35
280
     0
102
RTVSPost2010PropOp35
 70
     1
102
RTVSPost2010Prop36
280
     0
102
RTVSPost2010PropOp36
 70
     1
102
RTVSPost2010Prop37
 90
       50
102
RTVSPost2010PropOp37
 70
     1
102
RTVSPost2010Prop38
140
0.0
102
RTVSPost2010PropOp38
 70
     1
102
RTVSPost2010Prop39
140
1.0
102
RTVSPost2010PropOp39
 70
     1
102
RTVSPost2010Prop40
 90
        0
102
RTVSPost2010PropOp40
 70
     1
102
RTVSPost2010Prop41ColorIndex
 90
       18
102
RTVSPost2010Prop41ColorRGB
 90
        0
102
RTVSPost2010PropOp41
 70
     1
102
RTVSPost2010Prop42
 90
       50
102
RTVSPost2010PropOp42
 70
     1
102
RTVSPost2010Prop43
 90
        3
102
RTVSPost2010PropOp43
 70
     1
102
RTVSPost2010Prop44ColorIndex
 90
        5
102
RTVSPost2010Prop44ColorRGB
 90
      255
102
RTVSPost2010PropOp44
 70
     1
102
RTVSPost2010Prop45
280
     0
102
RTVSPost2010PropOp45
 70
     1
102
RTVSPost2010Prop46
 90
       50
102
RTVSPost2010PropOp46
 70
     1
102
RTVSPost2010Prop47
 90
       50
102
RTVSPost2010PropOp47
 70
     1
102
RTVSPost2010Prop48
 90
       50
102
RTVSPost2010PropOp48
 70
     1
102
RTVSPost2010Prop49
280
     0
102
RTVSPost2010PropOp49
 70
     1
102
RTVSPost2010Prop50
 90
       50
102
RTVSPost2010PropOp50
 70
     1
102
RTVSPost2010Prop51ColorIndex
 90
      256
102
RTVSPost2010Prop51ColorRGB
 90
-16777216
102
RTVSPost2010PropOp51
 70
     0
102
RTVSPost2010Prop52
140
1.0
102
RTVSPost2010PropOp52
 70
     0
102
RTVSPost2010Prop53
 90
        2
102
RTVSPost2010PropOp53
 70
     1
102
RTVSPost2010Prop54
  1
strokes_ogs.tif
102
RTVSPost2010PropOp54
 70
     1
102
RTVSPost2010Prop55
280
     0
102
RTVSPost2010PropOp55
 70
     1
102
RTVSPost2010Prop56
140
1.0
102
RTVSPost2010PropOp56
 70
     1
102
RTVSPost2010Prop57
140
1.0
102
RTVSPost2010PropOp57
 70
     1
102
RTVSPropertyOp0
 70
     1
102
RTVSPropertyOp1
 70
     1
102
RTVSPropertyOp2
 70
     1
102
RTVSPropertyOp3
 70
     1
102
RTVSPropertyOp4
 70
     1
102
RTVSPropertyOp5
 70
     1
102
RTVSPropertyOp6
 70
     1
102
RTVSPropertyOp7
 70
     1
102
RTVSPropertyOp8
 70
     1
102
RTVSPropertyOp9
 70
     1
102
RTVSPropertyOp10
 70
     1
102
RTVSPropertyOp11
 70
     1
102
RTVSPropertyOp12
 70
     1
102
RTVSPropertyOp13
 70
     1
102
RTVSPropertyOp14
 70
     1
102
RTVSPropertyOp15
 70
     1
102
RTVSPropertyOp16
 70
     1
102
RTVSPropertyOp17
 70
     1
102
RTVSPropertyOp18
 70
     1
102
RTVSPropertyOp19
 70
     1
102
RTVSPropertyOp20
 70
     1
102
RTVSPropertyOp21
 70
     1
102
RTVSPropertyOp22
 70
     1
102
RTVSPropertyOp23
 70
     1
102
RTVSPropertyOp24
 70
     1
102
RTVSPropertyOp25
 70
     1
102
RTVSPropertyOp26
 70
     1
102
RTVSPropertyOp27
 70
     1
102
RTVSPropertyOp28
 70
     1
102
RTVSPropertyOp29
 70
     1
102
RTVSPropertyOp30
 70
     1
102
RTVSPropertyOp31
 70
     1
102
RTVSPropertyOp32
 70
     1
102
RTVSPropertyOp33
 70
     1
102
RTVSPropertyOp34
 70
     1
102
RTVSPropertyOp35
 70
     1
102
RTVSPropertyOp36
 70
     1
102
RTVSPropertyOp37
 70
     1
102
RTVSPropertyOp38
 70
     1
102
RTVSPropertyOp39
 70
     1
102
RTVSPropertyOp40
 70
     1
102
RTVSPropertyOp41
 70
     1
102
RTVSPropertyOp42
 70
     1
102
RTVSPropertyOp43
 70
     1
102
RTVSPropertyOp44
 70
     1
102
RTVSPropertyOp45
 70
     1
102
RTVSPropertyOp46
 70
     1
102
RTVSPropertyOp47
 70
     1
102
RTVSPropertyOp48
 70
     1
102
RTVSPropertyOp49
 70
     1
102
RTVSPropertyOp50
 70
     1
102
RTVSPropertyOp51
 70
     0
102
RTVSPropertyOp52
 70
     0
102
RTVSPropertyOp53
 70
     1
102
RTVSPropertyOp54
 70
     1
102
RTVSPropertyOp55
 70
     1
102
RTVSPropertyOp56
 70
     1
102
RTVSPropertyOp57
 70
     1
102
RTVSPropertyOp58
 70
     1
102
RTVSPropertyOp59
 70
     1
102
RTVSPropertyOp60
 70
     1
102
RTVSPropertyOp61
 70
     1
102
RTVSPropertyOp62
 70
     1
  0
XRECORD
  5
39FD
102
{ACAD_REACTORS
330
39FC
102
}
330
39FC
100
AcDbXrecord
280
     1
102
RTVSPost2010Prop28
280
     0
102
RTVSPost2010PropOp28
 70
     1
102
RTVSPost2010Prop29
280
     1
102
RTVSPost2010PropOp29
 70
     1
102
RTVSPost2010Prop30
280
     1
102
RTVSPost2010PropOp30
 70
     1
102
RTVSPost2010Prop31
280
     0
102
RTVSPost2010PropOp31
 70
     1
102
RTVSPost2010Prop32
280
     0
102
RTVSPost2010PropOp32
 70
     1
102
RTVSPost2010Prop33
280
     0
102
RTVSPost2010PropOp33
 70
     1
102
RTVSPost2010Prop34
280
     0
102
RTVSPost2010PropOp34
 70
     1
102
RTVSPost2010Prop35
280
     0
102
RTVSPost2010PropOp35
 70
     1
102
RTVSPost2010Prop36
280
     0
102
RTVSPost2010PropOp36
 70
     1
102
RTVSPost2010Prop37
 90
       50
102
RTVSPost2010PropOp37
 70
     1
102
RTVSPost2010Prop38
140
0.0
102
RTVSPost2010PropOp38
 70
     1
102
RTVSPost2010Prop39
140
1.0
102
RTVSPost2010PropOp39
 70
     1
102
RTVSPost2010Prop40
 90
        0
102
RTVSPost2010PropOp40
 70
     1
102
RTVSPost2010Prop41ColorIndex
 90
       18
102
RTVSPost2010Prop41ColorRGB
 90
        0
102
RTVSPost2010PropOp41
 70
     1
102
RTVSPost2010Prop42
 90
       50
102
RTVSPost2010PropOp42
 70
     1
102
RTVSPost2010Prop43
 90
        3
102
RTVSPost2010PropOp43
 70
     1
102
RTVSPost2010Prop44ColorIndex
 90
        5
102
RTVSPost2010Prop44ColorRGB
 90
      255
102
RTVSPost2010PropOp44
 70
     1
102
RTVSPost2010Prop45
280
     0
102
RTVSPost2010PropOp45
 70
     1
102
RTVSPost2010Prop46
 90
       50
102
RTVSPost2010PropOp46
 70
     1
102
RTVSPost2010Prop47
 90
       50
102
RTVSPost2010PropOp47
 70
     1
102
RTVSPost2010Prop48
 90
       50
102
RTVSPost2010PropOp48
 70
     1
102
RTVSPost2010Prop49
280
     0
102
RTVSPost2010PropOp49
 70
     1
102
RTVSPost2010Prop50
 90
       50
102
RTVSPost2010PropOp50
 70
     1
102
RTVSPost2010Prop51ColorIndex
 90
      256
102
RTVSPost2010Prop51ColorRGB
 90
-16777216
102
RTVSPost2010PropOp51
 70
     0
102
RTVSPost2010Prop52
140
1.0
102
RTVSPost2010PropOp52
 70
     0
102
RTVSPost2010Prop53
 90
        2
102
RTVSPost2010PropOp53
 70
     1
102
RTVSPost2010Prop54
  1
strokes_ogs.tif
102
RTVSPost2010PropOp54
 70
     1
102
RTVSPost2010Prop55
280
     0
102
RTVSPost2010PropOp55
 70
     1
102
RTVSPost2010Prop56
140
1.0
102
RTVSPost2010PropOp56
 70
     1
102
RTVSPost2010Prop57
140
1.0
102
RTVSPost2010PropOp57
 70
     1
102
RTVSPropertyOp0
 70
     1
102
RTVSPropertyOp1
 70
     1
102
RTVSPropertyOp2
 70
     1
102
RTVSPropertyOp3
 70
     1
102
RTVSPropertyOp4
 70
     1
102
RTVSPropertyOp5
 70
     1
102
RTVSPropertyOp6
 70
     1
102
RTVSPropertyOp7
 70
     1
102
RTVSPropertyOp8
 70
     1
102
RTVSPropertyOp9
 70
     1
102
RTVSPropertyOp10
 70
     1
102
RTVSPropertyOp11
 70
     1
102
RTVSPropertyOp12
 70
     1
102
RTVSPropertyOp13
 70
     1
102
RTVSPropertyOp14
 70
     1
102
RTVSPropertyOp15
 70
     1
102
RTVSPropertyOp16
 70
     1
102
RTVSPropertyOp17
 70
     1
102
RTVSPropertyOp18
 70
     1
102
RTVSPropertyOp19
 70
     1
102
RTVSPropertyOp20
 70
     1
102
RTVSPropertyOp21
 70
     1
102
RTVSPropertyOp22
 70
     1
102
RTVSPropertyOp23
 70
     1
102
RTVSPropertyOp24
 70
     1
102
RTVSPropertyOp25
 70
     1
102
RTVSPropertyOp26
 70
     1
102
RTVSPropertyOp27
 70
     1
102
RTVSPropertyOp28
 70
     1
102
RTVSPropertyOp29
 70
     1
102
RTVSPropertyOp30
 70
     1
102
RTVSPropertyOp31
 70
     1
102
RTVSPropertyOp32
 70
     1
102
RTVSPropertyOp33
 70
     1
102
RTVSPropertyOp34
 70
     1
102
RTVSPropertyOp35
 70
     1
102
RTVSPropertyOp36
 70
     1
102
RTVSPropertyOp37
 70
     1
102
RTVSPropertyOp38
 70
     1
102
RTVSPropertyOp39
 70
     1
102
RTVSPropertyOp40
 70
     1
102
RTVSPropertyOp41
 70
     1
102
RTVSPropertyOp42
 70
     1
102
RTVSPropertyOp43
 70
     1
102
RTVSPropertyOp44
 70
     1
102
RTVSPropertyOp45
 70
     1
102
RTVSPropertyOp46
 70
     1
102
RTVSPropertyOp47
 70
     1
102
RTVSPropertyOp48
 70
     1
102
RTVSPropertyOp49
 70
     1
102
RTVSPropertyOp50
 70
     1
102
RTVSPropertyOp51
 70
     0
102
RTVSPropertyOp52
 70
     0
102
RTVSPropertyOp53
 70
     1
102
RTVSPropertyOp54
 70
     1
102
RTVSPropertyOp55
 70
     1
102
RTVSPropertyOp56
 70
     1
102
RTVSPropertyOp57
 70
     1
102
RTVSPropertyOp58
 70
     1
102
RTVSPropertyOp59
 70
     1
102
RTVSPropertyOp60
 70
     1
102
RTVSPropertyOp61
 70
     1
102
RTVSPropertyOp62
 70
     1
  0
XRECORD
  5
3A17
102
{ACAD_REACTORS
330
3A16
102
}
330
3A16
100
AcDbXrecord
280
     1
102
RTVSPost2010Prop28
280
     0
102
RTVSPost2010PropOp28
 70
     0
102
RTVSPost2010Prop29
280
     1
102
RTVSPost2010PropOp29
 70
     0
102
RTVSPost2010Prop30
280
     1
102
RTVSPost2010PropOp30
 70
     0
102
RTVSPost2010Prop31
280
     0
102
RTVSPost2010PropOp31
 70
     0
102
RTVSPost2010Prop32
280
     0
102
RTVSPost2010PropOp32
 70
     0
102
RTVSPost2010Prop33
280
     0
102
RTVSPost2010PropOp33
 70
     0
102
RTVSPost2010Prop34
280
     0
102
RTVSPost2010PropOp34
 70
     0
102
RTVSPost2010Prop35
280
     0
102
RTVSPost2010PropOp35
 70
     0
102
RTVSPost2010Prop36
280
     0
102
RTVSPost2010PropOp36
 70
     0
102
RTVSPost2010Prop37
 90
       50
102
RTVSPost2010PropOp37
 70
     0
102
RTVSPost2010Prop38
140
0.0
102
RTVSPost2010PropOp38
 70
     0
102
RTVSPost2010Prop39
140
1.0
102
RTVSPost2010PropOp39
 70
     0
102
RTVSPost2010Prop40
 90
        0
102
RTVSPost2010PropOp40
 70
     0
102
RTVSPost2010Prop41ColorIndex
 90
       18
102
RTVSPost2010Prop41ColorRGB
 90
        0
102
RTVSPost2010PropOp41
 70
     0
102
RTVSPost2010Prop42
 90
       50
102
RTVSPost2010PropOp42
 70
     0
102
RTVSPost2010Prop43
 90
        3
102
RTVSPost2010PropOp43
 70
     0
102
RTVSPost2010Prop44ColorIndex
 90
        5
102
RTVSPost2010Prop44ColorRGB
 90
      255
102
RTVSPost2010PropOp44
 70
     0
102
RTVSPost2010Prop45
280
     0
102
RTVSPost2010PropOp45
 70
     0
102
RTVSPost2010Prop46
 90
       50
102
RTVSPost2010PropOp46
 70
     0
102
RTVSPost2010Prop47
 90
       50
102
RTVSPost2010PropOp47
 70
     0
102
RTVSPost2010Prop48
 90
       50
102
RTVSPost2010PropOp48
 70
     0
102
RTVSPost2010Prop49
280
     0
102
RTVSPost2010PropOp49
 70
     0
102
RTVSPost2010Prop50
 90
       50
102
RTVSPost2010PropOp50
 70
     0
102
RTVSPost2010Prop51ColorIndex
 90
      256
102
RTVSPost2010Prop51ColorRGB
 90
-16777216
102
RTVSPost2010PropOp51
 70
     0
102
RTVSPost2010Prop52
140
1.0
102
RTVSPost2010PropOp52
 70
     0
102
RTVSPost2010Prop53
 90
        2
102
RTVSPost2010PropOp53
 70
     0
102
RTVSPost2010Prop54
  1
strokes_ogs.tif
102
RTVSPost2010PropOp54
 70
     0
102
RTVSPost2010Prop55
280
     0
102
RTVSPost2010PropOp55
 70
     0
102
RTVSPost2010Prop56
140
1.0
102
RTVSPost2010PropOp56
 70
     0
102
RTVSPost2010Prop57
140
1.0
102
RTVSPost2010PropOp57
 70
     0
102
RTVSPropertyOp0
 70
     0
102
RTVSPropertyOp1
 70
     0
102
RTVSPropertyOp2
 70
     0
102
RTVSPropertyOp3
 70
     0
102
RTVSPropertyOp4
 70
     0
102
RTVSPropertyOp5
 70
     0
102
RTVSPropertyOp6
 70
     0
102
RTVSPropertyOp7
 70
     0
102
RTVSPropertyOp8
 70
     0
102
RTVSPropertyOp9
 70
     0
102
RTVSPropertyOp10
 70
     0
102
RTVSPropertyOp11
 70
     0
102
RTVSPropertyOp12
 70
     0
102
RTVSPropertyOp13
 70
     0
102
RTVSPropertyOp14
 70
     2
102
RTVSPropertyOp15
 70
     0
102
RTVSPropertyOp16
 70
     0
102
RTVSPropertyOp17
 70
     0
102
RTVSPropertyOp18
 70
     0
102
RTVSPropertyOp19
 70
     0
102
RTVSPropertyOp20
 70
     0
102
RTVSPropertyOp21
 70
     0
102
RTVSPropertyOp22
 70
     0
102
RTVSPropertyOp23
 70
     0
102
RTVSPropertyOp24
 70
     0
102
RTVSPropertyOp25
 70
     0
102
RTVSPropertyOp26
 70
     0
102
RTVSPropertyOp27
 70
     0
102
RTVSPropertyOp28
 70
     0
102
RTVSPropertyOp29
 70
     0
102
RTVSPropertyOp30
 70
     0
102
RTVSPropertyOp31
 70
     0
102
RTVSPropertyOp32
 70
     0
102
RTVSPropertyOp33
 70
     0
102
RTVSPropertyOp34
 70
     0
102
RTVSPropertyOp35
 70
     0
102
RTVSPropertyOp36
 70
     0
102
RTVSPropertyOp37
 70
     0
102
RTVSPropertyOp38
 70
     0
102
RTVSPropertyOp39
 70
     0
102
RTVSPropertyOp40
 70
     0
102
RTVSPropertyOp41
 70
     0
102
RTVSPropertyOp42
 70
     0
102
RTVSPropertyOp43
 70
     0
102
RTVSPropertyOp44
 70
     0
102
RTVSPropertyOp45
 70
     0
102
RTVSPropertyOp46
 70
     0
102
RTVSPropertyOp47
 70
     0
102
RTVSPropertyOp48
 70
     0
102
RTVSPropertyOp49
 70
     0
102
RTVSPropertyOp50
 70
     0
102
RTVSPropertyOp51
 70
     0
102
RTVSPropertyOp52
 70
     0
102
RTVSPropertyOp53
 70
     0
102
RTVSPropertyOp54
 70
     0
102
RTVSPropertyOp55
 70
     0
102
RTVSPropertyOp56
 70
     0
102
RTVSPropertyOp57
 70
     0
102
RTVSPropertyOp58
 70
     0
102
RTVSPropertyOp59
 70
     0
102
RTVSPropertyOp60
 70
     0
102
RTVSPropertyOp61
 70
     0
102
RTVSPropertyOp62
 70
     0
  0
XRECORD
  5
3A05
102
{ACAD_REACTORS
330
3A04
102
}
330
3A04
100
AcDbXrecord
280
     1
102
RTVSPost2010Prop28
280
     0
102
RTVSPost2010PropOp28
 70
     1
102
RTVSPost2010Prop29
280
     1
102
RTVSPost2010PropOp29
 70
     1
102
RTVSPost2010Prop30
280
     1
102
RTVSPost2010PropOp30
 70
     1
102
RTVSPost2010Prop31
280
     0
102
RTVSPost2010PropOp31
 70
     1
102
RTVSPost2010Prop32
280
     0
102
RTVSPost2010PropOp32
 70
     1
102
RTVSPost2010Prop33
280
     0
102
RTVSPost2010PropOp33
 70
     1
102
RTVSPost2010Prop34
280
     0
102
RTVSPost2010PropOp34
 70
     1
102
RTVSPost2010Prop35
280
     0
102
RTVSPost2010PropOp35
 70
     1
102
RTVSPost2010Prop36
280
     0
102
RTVSPost2010PropOp36
 70
     1
102
RTVSPost2010Prop37
 90
       50
102
RTVSPost2010PropOp37
 70
     1
102
RTVSPost2010Prop38
140
0.0
102
RTVSPost2010PropOp38
 70
     1
102
RTVSPost2010Prop39
140
1.0
102
RTVSPost2010PropOp39
 70
     1
102
RTVSPost2010Prop40
 90
        0
102
RTVSPost2010PropOp40
 70
     1
102
RTVSPost2010Prop41ColorIndex
 90
       18
102
RTVSPost2010Prop41ColorRGB
 90
        0
102
RTVSPost2010PropOp41
 70
     1
102
RTVSPost2010Prop42
 90
       50
102
RTVSPost2010PropOp42
 70
     1
102
RTVSPost2010Prop43
 90
        3
102
RTVSPost2010PropOp43
 70
     1
102
RTVSPost2010Prop44ColorIndex
 90
        5
102
RTVSPost2010Prop44ColorRGB
 90
      255
102
RTVSPost2010PropOp44
 70
     1
102
RTVSPost2010Prop45
280
     0
102
RTVSPost2010PropOp45
 70
     1
102
RTVSPost2010Prop46
 90
       50
102
RTVSPost2010PropOp46
 70
     1
102
RTVSPost2010Prop47
 90
       50
102
RTVSPost2010PropOp47
 70
     1
102
RTVSPost2010Prop48
 90
       50
102
RTVSPost2010PropOp48
 70
     1
102
RTVSPost2010Prop49
280
     0
102
RTVSPost2010PropOp49
 70
     1
102
RTVSPost2010Prop50
 90
       50
102
RTVSPost2010PropOp50
 70
     1
102
RTVSPost2010Prop51ColorIndex
 90
      256
102
RTVSPost2010Prop51ColorRGB
 90
-16777216
102
RTVSPost2010PropOp51
 70
     0
102
RTVSPost2010Prop52
140
1.0
102
RTVSPost2010PropOp52
 70
     0
102
RTVSPost2010Prop53
 90
        2
102
RTVSPost2010PropOp53
 70
     1
102
RTVSPost2010Prop54
  1
strokes_ogs.tif
102
RTVSPost2010PropOp54
 70
     1
102
RTVSPost2010Prop55
280
     0
102
RTVSPost2010PropOp55
 70
     1
102
RTVSPost2010Prop56
140
1.0
102
RTVSPost2010PropOp56
 70
     1
102
RTVSPost2010Prop57
140
1.0
102
RTVSPost2010PropOp57
 70
     1
102
RTVSPropertyOp0
 70
     1
102
RTVSPropertyOp1
 70
     1
102
RTVSPropertyOp2
 70
     1
102
RTVSPropertyOp3
 70
     1
102
RTVSPropertyOp4
 70
     1
102
RTVSPropertyOp5
 70
     1
102
RTVSPropertyOp6
 70
     1
102
RTVSPropertyOp7
 70
     1
102
RTVSPropertyOp8
 70
     1
102
RTVSPropertyOp9
 70
     1
102
RTVSPropertyOp10
 70
     1
102
RTVSPropertyOp11
 70
     1
102
RTVSPropertyOp12
 70
     1
102
RTVSPropertyOp13
 70
     1
102
RTVSPropertyOp14
 70
     1
102
RTVSPropertyOp15
 70
     1
102
RTVSPropertyOp16
 70
     1
102
RTVSPropertyOp17
 70
     1
102
RTVSPropertyOp18
 70
     1
102
RTVSPropertyOp19
 70
     1
102
RTVSPropertyOp20
 70
     1
102
RTVSPropertyOp21
 70
     1
102
RTVSPropertyOp22
 70
     1
102
RTVSPropertyOp23
 70
     1
102
RTVSPropertyOp24
 70
     1
102
RTVSPropertyOp25
 70
     1
102
RTVSPropertyOp26
 70
     1
102
RTVSPropertyOp27
 70
     1
102
RTVSPropertyOp28
 70
     1
102
RTVSPropertyOp29
 70
     1
102
RTVSPropertyOp30
 70
     1
102
RTVSPropertyOp31
 70
     1
102
RTVSPropertyOp32
 70
     1
102
RTVSPropertyOp33
 70
     1
102
RTVSPropertyOp34
 70
     1
102
RTVSPropertyOp35
 70
     1
102
RTVSPropertyOp36
 70
     1
102
RTVSPropertyOp37
 70
     1
102
RTVSPropertyOp38
 70
     1
102
RTVSPropertyOp39
 70
     1
102
RTVSPropertyOp40
 70
     1
102
RTVSPropertyOp41
 70
     1
102
RTVSPropertyOp42
 70
     1
102
RTVSPropertyOp43
 70
     1
102
RTVSPropertyOp44
 70
     1
102
RTVSPropertyOp45
 70
     1
102
RTVSPropertyOp46
 70
     1
102
RTVSPropertyOp47
 70
     1
102
RTVSPropertyOp48
 70
     1
102
RTVSPropertyOp49
 70
     1
102
RTVSPropertyOp50
 70
     1
102
RTVSPropertyOp51
 70
     0
102
RTVSPropertyOp52
 70
     0
102
RTVSPropertyOp53
 70
     1
102
RTVSPropertyOp54
 70
     1
102
RTVSPropertyOp55
 70
     1
102
RTVSPropertyOp56
 70
     1
102
RTVSPropertyOp57
 70
     1
102
RTVSPropertyOp58
 70
     1
102
RTVSPropertyOp59
 70
     1
102
RTVSPropertyOp60
 70
     1
102
RTVSPropertyOp61
 70
     1
102
RTVSPropertyOp62
 70
     1
  0
XRECORD
  5
39E9
102
{ACAD_REACTORS
330
39E8
102
}
330
39E8
100
AcDbXrecord
280
     1
102
RTVSPost2010Prop28
280
     0
102
RTVSPost2010PropOp28
 70
     1
102
RTVSPost2010Prop29
280
     1
102
RTVSPost2010PropOp29
 70
     1
102
RTVSPost2010Prop30
280
     1
102
RTVSPost2010PropOp30
 70
     1
102
RTVSPost2010Prop31
280
     0
102
RTVSPost2010PropOp31
 70
     1
102
RTVSPost2010Prop32
280
     0
102
RTVSPost2010PropOp32
 70
     1
102
RTVSPost2010Prop33
280
     0
102
RTVSPost2010PropOp33
 70
     1
102
RTVSPost2010Prop34
280
     0
102
RTVSPost2010PropOp34
 70
     1
102
RTVSPost2010Prop35
280
     0
102
RTVSPost2010PropOp35
 70
     1
102
RTVSPost2010Prop36
280
     0
102
RTVSPost2010PropOp36
 70
     1
102
RTVSPost2010Prop37
 90
       50
102
RTVSPost2010PropOp37
 70
     1
102
RTVSPost2010Prop38
140
0.0
102
RTVSPost2010PropOp38
 70
     1
102
RTVSPost2010Prop39
140
1.0
102
RTVSPost2010PropOp39
 70
     1
102
RTVSPost2010Prop40
 90
        0
102
RTVSPost2010PropOp40
 70
     1
102
RTVSPost2010Prop41ColorIndex
 90
       18
102
RTVSPost2010Prop41ColorRGB
 90
        0
102
RTVSPost2010PropOp41
 70
     1
102
RTVSPost2010Prop42
 90
       50
102
RTVSPost2010PropOp42
 70
     1
102
RTVSPost2010Prop43
 90
        3
102
RTVSPost2010PropOp43
 70
     1
102
RTVSPost2010Prop44ColorIndex
 90
        5
102
RTVSPost2010Prop44ColorRGB
 90
      255
102
RTVSPost2010PropOp44
 70
     1
102
RTVSPost2010Prop45
280
     0
102
RTVSPost2010PropOp45
 70
     1
102
RTVSPost2010Prop46
 90
       50
102
RTVSPost2010PropOp46
 70
     1
102
RTVSPost2010Prop47
 90
       50
102
RTVSPost2010PropOp47
 70
     1
102
RTVSPost2010Prop48
 90
       50
102
RTVSPost2010PropOp48
 70
     1
102
RTVSPost2010Prop49
280
     0
102
RTVSPost2010PropOp49
 70
     1
102
RTVSPost2010Prop50
 90
       50
102
RTVSPost2010PropOp50
 70
     1
102
RTVSPost2010Prop51ColorIndex
 90
      256
102
RTVSPost2010Prop51ColorRGB
 90
-16777216
102
RTVSPost2010PropOp51
 70
     0
102
RTVSPost2010Prop52
140
1.0
102
RTVSPost2010PropOp52
 70
     0
102
RTVSPost2010Prop53
 90
        2
102
RTVSPost2010PropOp53
 70
     1
102
RTVSPost2010Prop54
  1
strokes_ogs.tif
102
RTVSPost2010PropOp54
 70
     1
102
RTVSPost2010Prop55
280
     0
102
RTVSPost2010PropOp55
 70
     1
102
RTVSPost2010Prop56
140
1.0
102
RTVSPost2010PropOp56
 70
     1
102
RTVSPost2010Prop57
140
1.0
102
RTVSPost2010PropOp57
 70
     1
102
RTVSPropertyOp0
 70
     1
102
RTVSPropertyOp1
 70
     1
102
RTVSPropertyOp2
 70
     1
102
RTVSPropertyOp3
 70
     1
102
RTVSPropertyOp4
 70
     1
102
RTVSPropertyOp5
 70
     1
102
RTVSPropertyOp6
 70
     1
102
RTVSPropertyOp7
 70
     1
102
RTVSPropertyOp8
 70
     1
102
RTVSPropertyOp9
 70
     1
102
RTVSPropertyOp10
 70
     1
102
RTVSPropertyOp11
 70
     1
102
RTVSPropertyOp12
 70
     1
102
RTVSPropertyOp13
 70
     1
102
RTVSPropertyOp14
 70
     1
102
RTVSPropertyOp15
 70
     1
102
RTVSPropertyOp16
 70
     1
102
RTVSPropertyOp17
 70
     1
102
RTVSPropertyOp18
 70
     1
102
RTVSPropertyOp19
 70
     1
102
RTVSPropertyOp20
 70
     1
102
RTVSPropertyOp21
 70
     1
102
RTVSPropertyOp22
 70
     1
102
RTVSPropertyOp23
 70
     1
102
RTVSPropertyOp24
 70
     1
102
RTVSPropertyOp25
 70
     1
102
RTVSPropertyOp26
 70
     1
102
RTVSPropertyOp27
 70
     1
102
RTVSPropertyOp28
 70
     1
102
RTVSPropertyOp29
 70
     1
102
RTVSPropertyOp30
 70
     1
102
RTVSPropertyOp31
 70
     1
102
RTVSPropertyOp32
 70
     1
102
RTVSPropertyOp33
 70
     1
102
RTVSPropertyOp34
 70
     1
102
RTVSPropertyOp35
 70
     1
102
RTVSPropertyOp36
 70
     1
102
RTVSPropertyOp37
 70
     1
102
RTVSPropertyOp38
 70
     1
102
RTVSPropertyOp39
 70
     1
102
RTVSPropertyOp40
 70
     1
102
RTVSPropertyOp41
 70
     1
102
RTVSPropertyOp42
 70
     1
102
RTVSPropertyOp43
 70
     1
102
RTVSPropertyOp44
 70
     1
102
RTVSPropertyOp45
 70
     1
102
RTVSPropertyOp46
 70
     1
102
RTVSPropertyOp47
 70
     1
102
RTVSPropertyOp48
 70
     1
102
RTVSPropertyOp49
 70
     1
102
RTVSPropertyOp50
 70
     1
102
RTVSPropertyOp51
 70
     0
102
RTVSPropertyOp52
 70
     0
102
RTVSPropertyOp53
 70
     1
102
RTVSPropertyOp54
 70
     1
102
RTVSPropertyOp55
 70
     1
102
RTVSPropertyOp56
 70
     1
102
RTVSPropertyOp57
 70
     1
102
RTVSPropertyOp58
 70
     1
102
RTVSPropertyOp59
 70
     1
102
RTVSPropertyOp60
 70
     1
102
RTVSPropertyOp61
 70
     1
102
RTVSPropertyOp62
 70
     1
  0
XRECORD
  5
39EB
102
{ACAD_REACTORS
330
39EA
102
}
330
39EA
100
AcDbXrecord
280
     1
102
RTVSPost2010Prop28
280
     0
102
RTVSPost2010PropOp28
 70
     1
102
RTVSPost2010Prop29
280
     1
102
RTVSPost2010PropOp29
 70
     1
102
RTVSPost2010Prop30
280
     1
102
RTVSPost2010PropOp30
 70
     1
102
RTVSPost2010Prop31
280
     0
102
RTVSPost2010PropOp31
 70
     1
102
RTVSPost2010Prop32
280
     0
102
RTVSPost2010PropOp32
 70
     1
102
RTVSPost2010Prop33
280
     0
102
RTVSPost2010PropOp33
 70
     1
102
RTVSPost2010Prop34
280
     0
102
RTVSPost2010PropOp34
 70
     1
102
RTVSPost2010Prop35
280
     0
102
RTVSPost2010PropOp35
 70
     1
102
RTVSPost2010Prop36
280
     0
102
RTVSPost2010PropOp36
 70
     1
102
RTVSPost2010Prop37
 90
       50
102
RTVSPost2010PropOp37
 70
     1
102
RTVSPost2010Prop38
140
0.0
102
RTVSPost2010PropOp38
 70
     1
102
RTVSPost2010Prop39
140
1.0
102
RTVSPost2010PropOp39
 70
     1
102
RTVSPost2010Prop40
 90
        0
102
RTVSPost2010PropOp40
 70
     1
102
RTVSPost2010Prop41ColorIndex
 90
       18
102
RTVSPost2010Prop41ColorRGB
 90
        0
102
RTVSPost2010PropOp41
 70
     1
102
RTVSPost2010Prop42
 90
       50
102
RTVSPost2010PropOp42
 70
     1
102
RTVSPost2010Prop43
 90
        3
102
RTVSPost2010PropOp43
 70
     1
102
RTVSPost2010Prop44ColorIndex
 90
        5
102
RTVSPost2010Prop44ColorRGB
 90
      255
102
RTVSPost2010PropOp44
 70
     1
102
RTVSPost2010Prop45
280
     0
102
RTVSPost2010PropOp45
 70
     1
102
RTVSPost2010Prop46
 90
       50
102
RTVSPost2010PropOp46
 70
     1
102
RTVSPost2010Prop47
 90
       50
102
RTVSPost2010PropOp47
 70
     1
102
RTVSPost2010Prop48
 90
       50
102
RTVSPost2010PropOp48
 70
     1
102
RTVSPost2010Prop49
280
     0
102
RTVSPost2010PropOp49
 70
     1
102
RTVSPost2010Prop50
 90
       50
102
RTVSPost2010PropOp50
 70
     1
102
RTVSPost2010Prop51ColorIndex
 90
      256
102
RTVSPost2010Prop51ColorRGB
 90
-16777216
102
RTVSPost2010PropOp51
 70
     0
102
RTVSPost2010Prop52
140
1.0
102
RTVSPost2010PropOp52
 70
     0
102
RTVSPost2010Prop53
 90
        2
102
RTVSPost2010PropOp53
 70
     1
102
RTVSPost2010Prop54
  1
strokes_ogs.tif
102
RTVSPost2010PropOp54
 70
     1
102
RTVSPost2010Prop55
280
     0
102
RTVSPost2010PropOp55
 70
     1
102
RTVSPost2010Prop56
140
1.0
102
RTVSPost2010PropOp56
 70
     1
102
RTVSPost2010Prop57
140
1.0
102
RTVSPost2010PropOp57
 70
     1
102
RTVSPropertyOp0
 70
     1
102
RTVSPropertyOp1
 70
     1
102
RTVSPropertyOp2
 70
     1
102
RTVSPropertyOp3
 70
     1
102
RTVSPropertyOp4
 70
     1
102
RTVSPropertyOp5
 70
     1
102
RTVSPropertyOp6
 70
     1
102
RTVSPropertyOp7
 70
     1
102
RTVSPropertyOp8
 70
     1
102
RTVSPropertyOp9
 70
     1
102
RTVSPropertyOp10
 70
     1
102
RTVSPropertyOp11
 70
     1
102
RTVSPropertyOp12
 70
     1
102
RTVSPropertyOp13
 70
     1
102
RTVSPropertyOp14
 70
     1
102
RTVSPropertyOp15
 70
     1
102
RTVSPropertyOp16
 70
     1
102
RTVSPropertyOp17
 70
     1
102
RTVSPropertyOp18
 70
     1
102
RTVSPropertyOp19
 70
     1
102
RTVSPropertyOp20
 70
     1
102
RTVSPropertyOp21
 70
     1
102
RTVSPropertyOp22
 70
     1
102
RTVSPropertyOp23
 70
     1
102
RTVSPropertyOp24
 70
     1
102
RTVSPropertyOp25
 70
     1
102
RTVSPropertyOp26
 70
     1
102
RTVSPropertyOp27
 70
     1
102
RTVSPropertyOp28
 70
     1
102
RTVSPropertyOp29
 70
     1
102
RTVSPropertyOp30
 70
     1
102
RTVSPropertyOp31
 70
     1
102
RTVSPropertyOp32
 70
     1
102
RTVSPropertyOp33
 70
     1
102
RTVSPropertyOp34
 70
     1
102
RTVSPropertyOp35
 70
     1
102
RTVSPropertyOp36
 70
     1
102
RTVSPropertyOp37
 70
     1
102
RTVSPropertyOp38
 70
     1
102
RTVSPropertyOp39
 70
     1
102
RTVSPropertyOp40
 70
     1
102
RTVSPropertyOp41
 70
     1
102
RTVSPropertyOp42
 70
     1
102
RTVSPropertyOp43
 70
     1
102
RTVSPropertyOp44
 70
     1
102
RTVSPropertyOp45
 70
     1
102
RTVSPropertyOp46
 70
     1
102
RTVSPropertyOp47
 70
     1
102
RTVSPropertyOp48
 70
     1
102
RTVSPropertyOp49
 70
     1
102
RTVSPropertyOp50
 70
     1
102
RTVSPropertyOp51
 70
     0
102
RTVSPropertyOp52
 70
     0
102
RTVSPropertyOp53
 70
     1
102
RTVSPropertyOp54
 70
     1
102
RTVSPropertyOp55
 70
     1
102
RTVSPropertyOp56
 70
     1
102
RTVSPropertyOp57
 70
     1
102
RTVSPropertyOp58
 70
     1
102
RTVSPropertyOp59
 70
     1
102
RTVSPropertyOp60
 70
     1
102
RTVSPropertyOp61
 70
     1
102
RTVSPropertyOp62
 70
     1
  0
XRECORD
  5
39ED
102
{ACAD_REACTORS
330
39EC
102
}
330
39EC
100
AcDbXrecord
280
     1
102
RTVSPost2010Prop28
280
     0
102
RTVSPost2010PropOp28
 70
     1
102
RTVSPost2010Prop29
280
     1
102
RTVSPost2010PropOp29
 70
     1
102
RTVSPost2010Prop30
280
     1
102
RTVSPost2010PropOp30
 70
     1
102
RTVSPost2010Prop31
280
     0
102
RTVSPost2010PropOp31
 70
     1
102
RTVSPost2010Prop32
280
     0
102
RTVSPost2010PropOp32
 70
     1
102
RTVSPost2010Prop33
280
     0
102
RTVSPost2010PropOp33
 70
     1
102
RTVSPost2010Prop34
280
     0
102
RTVSPost2010PropOp34
 70
     1
102
RTVSPost2010Prop35
280
     0
102
RTVSPost2010PropOp35
 70
     1
102
RTVSPost2010Prop36
280
     0
102
RTVSPost2010PropOp36
 70
     1
102
RTVSPost2010Prop37
 90
       50
102
RTVSPost2010PropOp37
 70
     1
102
RTVSPost2010Prop38
140
0.0
102
RTVSPost2010PropOp38
 70
     1
102
RTVSPost2010Prop39
140
1.0
102
RTVSPost2010PropOp39
 70
     1
102
RTVSPost2010Prop40
 90
        0
102
RTVSPost2010PropOp40
 70
     1
102
RTVSPost2010Prop41ColorIndex
 90
       18
102
RTVSPost2010Prop41ColorRGB
 90
        0
102
RTVSPost2010PropOp41
 70
     1
102
RTVSPost2010Prop42
 90
       50
102
RTVSPost2010PropOp42
 70
     1
102
RTVSPost2010Prop43
 90
        3
102
RTVSPost2010PropOp43
 70
     1
102
RTVSPost2010Prop44ColorIndex
 90
        5
102
RTVSPost2010Prop44ColorRGB
 90
      255
102
RTVSPost2010PropOp44
 70
     1
102
RTVSPost2010Prop45
280
     0
102
RTVSPost2010PropOp45
 70
     1
102
RTVSPost2010Prop46
 90
       50
102
RTVSPost2010PropOp46
 70
     1
102
RTVSPost2010Prop47
 90
       50
102
RTVSPost2010PropOp47
 70
     1
102
RTVSPost2010Prop48
 90
       50
102
RTVSPost2010PropOp48
 70
     1
102
RTVSPost2010Prop49
280
     0
102
RTVSPost2010PropOp49
 70
     1
102
RTVSPost2010Prop50
 90
       50
102
RTVSPost2010PropOp50
 70
     1
102
RTVSPost2010Prop51ColorIndex
 90
      256
102
RTVSPost2010Prop51ColorRGB
 90
-16777216
102
RTVSPost2010PropOp51
 70
     0
102
RTVSPost2010Prop52
140
1.0
102
RTVSPost2010PropOp52
 70
     0
102
RTVSPost2010Prop53
 90
        2
102
RTVSPost2010PropOp53
 70
     1
102
RTVSPost2010Prop54
  1
strokes_ogs.tif
102
RTVSPost2010PropOp54
 70
     1
102
RTVSPost2010Prop55
280
     0
102
RTVSPost2010PropOp55
 70
     1
102
RTVSPost2010Prop56
140
1.0
102
RTVSPost2010PropOp56
 70
     1
102
RTVSPost2010Prop57
140
1.0
102
RTVSPost2010PropOp57
 70
     1
102
RTVSPropertyOp0
 70
     1
102
RTVSPropertyOp1
 70
     1
102
RTVSPropertyOp2
 70
     1
102
RTVSPropertyOp3
 70
     1
102
RTVSPropertyOp4
 70
     1
102
RTVSPropertyOp5
 70
     1
102
RTVSPropertyOp6
 70
     1
102
RTVSPropertyOp7
 70
     1
102
RTVSPropertyOp8
 70
     1
102
RTVSPropertyOp9
 70
     1
102
RTVSPropertyOp10
 70
     1
102
RTVSPropertyOp11
 70
     1
102
RTVSPropertyOp12
 70
     1
102
RTVSPropertyOp13
 70
     1
102
RTVSPropertyOp14
 70
     1
102
RTVSPropertyOp15
 70
     1
102
RTVSPropertyOp16
 70
     1
102
RTVSPropertyOp17
 70
     1
102
RTVSPropertyOp18
 70
     1
102
RTVSPropertyOp19
 70
     1
102
RTVSPropertyOp20
 70
     1
102
RTVSPropertyOp21
 70
     1
102
RTVSPropertyOp22
 70
     1
102
RTVSPropertyOp23
 70
     1
102
RTVSPropertyOp24
 70
     1
102
RTVSPropertyOp25
 70
     1
102
RTVSPropertyOp26
 70
     1
102
RTVSPropertyOp27
 70
     1
102
RTVSPropertyOp28
 70
     1
102
RTVSPropertyOp29
 70
     1
102
RTVSPropertyOp30
 70
     1
102
RTVSPropertyOp31
 70
     1
102
RTVSPropertyOp32
 70
     1
102
RTVSPropertyOp33
 70
     1
102
RTVSPropertyOp34
 70
     1
102
RTVSPropertyOp35
 70
     1
102
RTVSPropertyOp36
 70
     1
102
RTVSPropertyOp37
 70
     1
102
RTVSPropertyOp38
 70
     1
102
RTVSPropertyOp39
 70
     1
102
RTVSPropertyOp40
 70
     1
102
RTVSPropertyOp41
 70
     1
102
RTVSPropertyOp42
 70
     1
102
RTVSPropertyOp43
 70
     1
102
RTVSPropertyOp44
 70
     1
102
RTVSPropertyOp45
 70
     1
102
RTVSPropertyOp46
 70
     1
102
RTVSPropertyOp47
 70
     1
102
RTVSPropertyOp48
 70
     1
102
RTVSPropertyOp49
 70
     1
102
RTVSPropertyOp50
 70
     1
102
RTVSPropertyOp51
 70
     0
102
RTVSPropertyOp52
 70
     0
102
RTVSPropertyOp53
 70
     1
102
RTVSPropertyOp54
 70
     1
102
RTVSPropertyOp55
 70
     1
102
RTVSPropertyOp56
 70
     1
102
RTVSPropertyOp57
 70
     1
102
RTVSPropertyOp58
 70
     1
102
RTVSPropertyOp59
 70
     1
102
RTVSPropertyOp60
 70
     1
102
RTVSPropertyOp61
 70
     1
102
RTVSPropertyOp62
 70
     1
  0
XRECORD
  5
39EF
102
{ACAD_REACTORS
330
39EE
102
}
330
39EE
100
AcDbXrecord
280
     1
102
RTVSPost2010Prop28
280
     0
102
RTVSPost2010PropOp28
 70
     1
102
RTVSPost2010Prop29
280
     1
102
RTVSPost2010PropOp29
 70
     1
102
RTVSPost2010Prop30
280
     1
102
RTVSPost2010PropOp30
 70
     1
102
RTVSPost2010Prop31
280
     0
102
RTVSPost2010PropOp31
 70
     1
102
RTVSPost2010Prop32
280
     0
102
RTVSPost2010PropOp32
 70
     1
102
RTVSPost2010Prop33
280
     0
102
RTVSPost2010PropOp33
 70
     1
102
RTVSPost2010Prop34
280
     0
102
RTVSPost2010PropOp34
 70
     1
102
RTVSPost2010Prop35
280
     0
102
RTVSPost2010PropOp35
 70
     1
102
RTVSPost2010Prop36
280
     0
102
RTVSPost2010PropOp36
 70
     1
102
RTVSPost2010Prop37
 90
       50
102
RTVSPost2010PropOp37
 70
     1
102
RTVSPost2010Prop38
140
0.0
102
RTVSPost2010PropOp38
 70
     1
102
RTVSPost2010Prop39
140
1.0
102
RTVSPost2010PropOp39
 70
     1
102
RTVSPost2010Prop40
 90
        0
102
RTVSPost2010PropOp40
 70
     1
102
RTVSPost2010Prop41ColorIndex
 90
       18
102
RTVSPost2010Prop41ColorRGB
 90
        0
102
RTVSPost2010PropOp41
 70
     1
102
RTVSPost2010Prop42
 90
       50
102
RTVSPost2010PropOp42
 70
     1
102
RTVSPost2010Prop43
 90
        3
102
RTVSPost2010PropOp43
 70
     1
102
RTVSPost2010Prop44ColorIndex
 90
        5
102
RTVSPost2010Prop44ColorRGB
 90
      255
102
RTVSPost2010PropOp44
 70
     1
102
RTVSPost2010Prop45
280
     0
102
RTVSPost2010PropOp45
 70
     1
102
RTVSPost2010Prop46
 90
       50
102
RTVSPost2010PropOp46
 70
     1
102
RTVSPost2010Prop47
 90
       50
102
RTVSPost2010PropOp47
 70
     1
102
RTVSPost2010Prop48
 90
       50
102
RTVSPost2010PropOp48
 70
     1
102
RTVSPost2010Prop49
280
     0
102
RTVSPost2010PropOp49
 70
     1
102
RTVSPost2010Prop50
 90
       50
102
RTVSPost2010PropOp50
 70
     1
102
RTVSPost2010Prop51ColorIndex
 90
      256
102
RTVSPost2010Prop51ColorRGB
 90
-16777216
102
RTVSPost2010PropOp51
 70
     0
102
RTVSPost2010Prop52
140
1.0
102
RTVSPost2010PropOp52
 70
     0
102
RTVSPost2010Prop53
 90
        2
102
RTVSPost2010PropOp53
 70
     1
102
RTVSPost2010Prop54
  1
strokes_ogs.tif
102
RTVSPost2010PropOp54
 70
     1
102
RTVSPost2010Prop55
280
     0
102
RTVSPost2010PropOp55
 70
     1
102
RTVSPost2010Prop56
140
1.0
102
RTVSPost2010PropOp56
 70
     1
102
RTVSPost2010Prop57
140
1.0
102
RTVSPost2010PropOp57
 70
     1
102
RTVSPropertyOp0
 70
     1
102
RTVSPropertyOp1
 70
     1
102
RTVSPropertyOp2
 70
     1
102
RTVSPropertyOp3
 70
     1
102
RTVSPropertyOp4
 70
     1
102
RTVSPropertyOp5
 70
     1
102
RTVSPropertyOp6
 70
     1
102
RTVSPropertyOp7
 70
     1
102
RTVSPropertyOp8
 70
     1
102
RTVSPropertyOp9
 70
     1
102
RTVSPropertyOp10
 70
     1
102
RTVSPropertyOp11
 70
     1
102
RTVSPropertyOp12
 70
     1
102
RTVSPropertyOp13
 70
     1
102
RTVSPropertyOp14
 70
     1
102
RTVSPropertyOp15
 70
     1
102
RTVSPropertyOp16
 70
     1
102
RTVSPropertyOp17
 70
     1
102
RTVSPropertyOp18
 70
     1
102
RTVSPropertyOp19
 70
     1
102
RTVSPropertyOp20
 70
     1
102
RTVSPropertyOp21
 70
     1
102
RTVSPropertyOp22
 70
     1
102
RTVSPropertyOp23
 70
     1
102
RTVSPropertyOp24
 70
     1
102
RTVSPropertyOp25
 70
     1
102
RTVSPropertyOp26
 70
     1
102
RTVSPropertyOp27
 70
     1
102
RTVSPropertyOp28
 70
     1
102
RTVSPropertyOp29
 70
     1
102
RTVSPropertyOp30
 70
     1
102
RTVSPropertyOp31
 70
     1
102
RTVSPropertyOp32
 70
     1
102
RTVSPropertyOp33
 70
     1
102
RTVSPropertyOp34
 70
     1
102
RTVSPropertyOp35
 70
     1
102
RTVSPropertyOp36
 70
     1
102
RTVSPropertyOp37
 70
     1
102
RTVSPropertyOp38
 70
     1
102
RTVSPropertyOp39
 70
     1
102
RTVSPropertyOp40
 70
     1
102
RTVSPropertyOp41
 70
     1
102
RTVSPropertyOp42
 70
     1
102
RTVSPropertyOp43
 70
     1
102
RTVSPropertyOp44
 70
     1
102
RTVSPropertyOp45
 70
     1
102
RTVSPropertyOp46
 70
     1
102
RTVSPropertyOp47
 70
     1
102
RTVSPropertyOp48
 70
     1
102
RTVSPropertyOp49
 70
     1
102
RTVSPropertyOp50
 70
     1
102
RTVSPropertyOp51
 70
     0
102
RTVSPropertyOp52
 70
     0
102
RTVSPropertyOp53
 70
     1
102
RTVSPropertyOp54
 70
     1
102
RTVSPropertyOp55
 70
     1
102
RTVSPropertyOp56
 70
     1
102
RTVSPropertyOp57
 70
     1
102
RTVSPropertyOp58
 70
     1
102
RTVSPropertyOp59
 70
     1
102
RTVSPropertyOp60
 70
     1
102
RTVSPropertyOp61
 70
     1
102
RTVSPropertyOp62
 70
     1
  0
XRECORD
  5
39F7
102
{ACAD_REACTORS
330
39F6
102
}
330
39F6
100
AcDbXrecord
280
     1
102
RTVSPost2010Prop28
280
     0
102
RTVSPost2010PropOp28
 70
     1
102
RTVSPost2010Prop29
280
     1
102
RTVSPost2010PropOp29
 70
     1
102
RTVSPost2010Prop30
280
     1
102
RTVSPost2010PropOp30
 70
     1
102
RTVSPost2010Prop31
280
     0
102
RTVSPost2010PropOp31
 70
     1
102
RTVSPost2010Prop32
280
     0
102
RTVSPost2010PropOp32
 70
     1
102
RTVSPost2010Prop33
280
     0
102
RTVSPost2010PropOp33
 70
     1
102
RTVSPost2010Prop34
280
     0
102
RTVSPost2010PropOp34
 70
     1
102
RTVSPost2010Prop35
280
     0
102
RTVSPost2010PropOp35
 70
     1
102
RTVSPost2010Prop36
280
     0
102
RTVSPost2010PropOp36
 70
     1
102
RTVSPost2010Prop37
 90
       50
102
RTVSPost2010PropOp37
 70
     1
102
RTVSPost2010Prop38
140
0.0
102
RTVSPost2010PropOp38
 70
     1
102
RTVSPost2010Prop39
140
1.0
102
RTVSPost2010PropOp39
 70
     1
102
RTVSPost2010Prop40
 90
        0
102
RTVSPost2010PropOp40
 70
     1
102
RTVSPost2010Prop41ColorIndex
 90
       18
102
RTVSPost2010Prop41ColorRGB
 90
        0
102
RTVSPost2010PropOp41
 70
     1
102
RTVSPost2010Prop42
 90
       50
102
RTVSPost2010PropOp42
 70
     1
102
RTVSPost2010Prop43
 90
        3
102
RTVSPost2010PropOp43
 70
     1
102
RTVSPost2010Prop44ColorIndex
 90
        5
102
RTVSPost2010Prop44ColorRGB
 90
      255
102
RTVSPost2010PropOp44
 70
     1
102
RTVSPost2010Prop45
280
     0
102
RTVSPost2010PropOp45
 70
     1
102
RTVSPost2010Prop46
 90
       50
102
RTVSPost2010PropOp46
 70
     1
102
RTVSPost2010Prop47
 90
       50
102
RTVSPost2010PropOp47
 70
     1
102
RTVSPost2010Prop48
 90
       50
102
RTVSPost2010PropOp48
 70
     1
102
RTVSPost2010Prop49
280
     0
102
RTVSPost2010PropOp49
 70
     1
102
RTVSPost2010Prop50
 90
       50
102
RTVSPost2010PropOp50
 70
     1
102
RTVSPost2010Prop51ColorIndex
 90
      256
102
RTVSPost2010Prop51ColorRGB
 90
-16777216
102
RTVSPost2010PropOp51
 70
     0
102
RTVSPost2010Prop52
140
1.0
102
RTVSPost2010PropOp52
 70
     0
102
RTVSPost2010Prop53
 90
        2
102
RTVSPost2010PropOp53
 70
     1
102
RTVSPost2010Prop54
  1
strokes_ogs.tif
102
RTVSPost2010PropOp54
 70
     1
102
RTVSPost2010Prop55
280
     0
102
RTVSPost2010PropOp55
 70
     1
102
RTVSPost2010Prop56
140
1.0
102
RTVSPost2010PropOp56
 70
     1
102
RTVSPost2010Prop57
140
1.0
102
RTVSPost2010PropOp57
 70
     1
102
RTVSPropertyOp0
 70
     1
102
RTVSPropertyOp1
 70
     1
102
RTVSPropertyOp2
 70
     1
102
RTVSPropertyOp3
 70
     1
102
RTVSPropertyOp4
 70
     1
102
RTVSPropertyOp5
 70
     1
102
RTVSPropertyOp6
 70
     1
102
RTVSPropertyOp7
 70
     1
102
RTVSPropertyOp8
 70
     1
102
RTVSPropertyOp9
 70
     1
102
RTVSPropertyOp10
 70
     1
102
RTVSPropertyOp11
 70
     1
102
RTVSPropertyOp12
 70
     1
102
RTVSPropertyOp13
 70
     1
102
RTVSPropertyOp14
 70
     1
102
RTVSPropertyOp15
 70
     1
102
RTVSPropertyOp16
 70
     1
102
RTVSPropertyOp17
 70
     1
102
RTVSPropertyOp18
 70
     1
102
RTVSPropertyOp19
 70
     1
102
RTVSPropertyOp20
 70
     1
102
RTVSPropertyOp21
 70
     1
102
RTVSPropertyOp22
 70
     1
102
RTVSPropertyOp23
 70
     1
102
RTVSPropertyOp24
 70
     1
102
RTVSPropertyOp25
 70
     1
102
RTVSPropertyOp26
 70
     1
102
RTVSPropertyOp27
 70
     1
102
RTVSPropertyOp28
 70
     1
102
RTVSPropertyOp29
 70
     1
102
RTVSPropertyOp30
 70
     1
102
RTVSPropertyOp31
 70
     1
102
RTVSPropertyOp32
 70
     1
102
RTVSPropertyOp33
 70
     1
102
RTVSPropertyOp34
 70
     1
102
RTVSPropertyOp35
 70
     1
102
RTVSPropertyOp36
 70
     1
102
RTVSPropertyOp37
 70
     1
102
RTVSPropertyOp38
 70
     1
102
RTVSPropertyOp39
 70
     1
102
RTVSPropertyOp40
 70
     1
102
RTVSPropertyOp41
 70
     1
102
RTVSPropertyOp42
 70
     1
102
RTVSPropertyOp43
 70
     1
102
RTVSPropertyOp44
 70
     1
102
RTVSPropertyOp45
 70
     1
102
RTVSPropertyOp46
 70
     1
102
RTVSPropertyOp47
 70
     1
102
RTVSPropertyOp48
 70
     1
102
RTVSPropertyOp49
 70
     1
102
RTVSPropertyOp50
 70
     1
102
RTVSPropertyOp51
 70
     0
102
RTVSPropertyOp52
 70
     0
102
RTVSPropertyOp53
 70
     1
102
RTVSPropertyOp54
 70
     1
102
RTVSPropertyOp55
 70
     1
102
RTVSPropertyOp56
 70
     1
102
RTVSPropertyOp57
 70
     1
102
RTVSPropertyOp58
 70
     1
102
RTVSPropertyOp59
 70
     1
102
RTVSPropertyOp60
 70
     1
102
RTVSPropertyOp61
 70
     1
102
RTVSPropertyOp62
 70
     1
  0
XRECORD
  5
3A13
102
{ACAD_REACTORS
330
3A12
102
}
330
3A12
100
AcDbXrecord
280
     1
102
RTVSPost2010Prop28
280
     0
102
RTVSPost2010PropOp28
 70
     0
102
RTVSPost2010Prop29
280
     1
102
RTVSPost2010PropOp29
 70
     0
102
RTVSPost2010Prop30
280
     1
102
RTVSPost2010PropOp30
 70
     0
102
RTVSPost2010Prop31
280
     0
102
RTVSPost2010PropOp31
 70
     0
102
RTVSPost2010Prop32
280
     0
102
RTVSPost2010PropOp32
 70
     0
102
RTVSPost2010Prop33
280
     0
102
RTVSPost2010PropOp33
 70
     0
102
RTVSPost2010Prop34
280
     0
102
RTVSPost2010PropOp34
 70
     0
102
RTVSPost2010Prop35
280
     0
102
RTVSPost2010PropOp35
 70
     0
102
RTVSPost2010Prop36
280
     0
102
RTVSPost2010PropOp36
 70
     0
102
RTVSPost2010Prop37
 90
       50
102
RTVSPost2010PropOp37
 70
     0
102
RTVSPost2010Prop38
140
0.0
102
RTVSPost2010PropOp38
 70
     0
102
RTVSPost2010Prop39
140
1.0
102
RTVSPost2010PropOp39
 70
     0
102
RTVSPost2010Prop40
 90
        0
102
RTVSPost2010PropOp40
 70
     0
102
RTVSPost2010Prop41ColorIndex
 90
       18
102
RTVSPost2010Prop41ColorRGB
 90
        0
102
RTVSPost2010PropOp41
 70
     0
102
RTVSPost2010Prop42
 90
       50
102
RTVSPost2010PropOp42
 70
     0
102
RTVSPost2010Prop43
 90
        3
102
RTVSPost2010PropOp43
 70
     0
102
RTVSPost2010Prop44ColorIndex
 90
        5
102
RTVSPost2010Prop44ColorRGB
 90
      255
102
RTVSPost2010PropOp44
 70
     0
102
RTVSPost2010Prop45
280
     0
102
RTVSPost2010PropOp45
 70
     0
102
RTVSPost2010Prop46
 90
       50
102
RTVSPost2010PropOp46
 70
     0
102
RTVSPost2010Prop47
 90
       50
102
RTVSPost2010PropOp47
 70
     0
102
RTVSPost2010Prop48
 90
       50
102
RTVSPost2010PropOp48
 70
     0
102
RTVSPost2010Prop49
280
     0
102
RTVSPost2010PropOp49
 70
     0
102
RTVSPost2010Prop50
 90
       50
102
RTVSPost2010PropOp50
 70
     0
102
RTVSPost2010Prop51ColorIndex
 90
      256
102
RTVSPost2010Prop51ColorRGB
 90
-16777216
102
RTVSPost2010PropOp51
 70
     0
102
RTVSPost2010Prop52
140
1.0
102
RTVSPost2010PropOp52
 70
     0
102
RTVSPost2010Prop53
 90
        2
102
RTVSPost2010PropOp53
 70
     0
102
RTVSPost2010Prop54
  1
strokes_ogs.tif
102
RTVSPost2010PropOp54
 70
     0
102
RTVSPost2010Prop55
280
     0
102
RTVSPost2010PropOp55
 70
     0
102
RTVSPost2010Prop56
140
1.0
102
RTVSPost2010PropOp56
 70
     0
102
RTVSPost2010Prop57
140
1.0
102
RTVSPost2010PropOp57
 70
     0
102
RTVSPropertyOp0
 70
     0
102
RTVSPropertyOp1
 70
     0
102
RTVSPropertyOp2
 70
     0
102
RTVSPropertyOp3
 70
     0
102
RTVSPropertyOp4
 70
     0
102
RTVSPropertyOp5
 70
     0
102
RTVSPropertyOp6
 70
     0
102
RTVSPropertyOp7
 70
     0
102
RTVSPropertyOp8
 70
     0
102
RTVSPropertyOp9
 70
     0
102
RTVSPropertyOp10
 70
     0
102
RTVSPropertyOp11
 70
     0
102
RTVSPropertyOp12
 70
     0
102
RTVSPropertyOp13
 70
     0
102
RTVSPropertyOp14
 70
     2
102
RTVSPropertyOp15
 70
     0
102
RTVSPropertyOp16
 70
     0
102
RTVSPropertyOp17
 70
     0
102
RTVSPropertyOp18
 70
     0
102
RTVSPropertyOp19
 70
     0
102
RTVSPropertyOp20
 70
     0
102
RTVSPropertyOp21
 70
     0
102
RTVSPropertyOp22
 70
     0
102
RTVSPropertyOp23
 70
     0
102
RTVSPropertyOp24
 70
     0
102
RTVSPropertyOp25
 70
     0
102
RTVSPropertyOp26
 70
     0
102
RTVSPropertyOp27
 70
     0
102
RTVSPropertyOp28
 70
     0
102
RTVSPropertyOp29
 70
     0
102
RTVSPropertyOp30
 70
     0
102
RTVSPropertyOp31
 70
     0
102
RTVSPropertyOp32
 70
     0
102
RTVSPropertyOp33
 70
     0
102
RTVSPropertyOp34
 70
     0
102
RTVSPropertyOp35
 70
     0
102
RTVSPropertyOp36
 70
     0
102
RTVSPropertyOp37
 70
     0
102
RTVSPropertyOp38
 70
     0
102
RTVSPropertyOp39
 70
     0
102
RTVSPropertyOp40
 70
     0
102
RTVSPropertyOp41
 70
     0
102
RTVSPropertyOp42
 70
     0
102
RTVSPropertyOp43
 70
     0
102
RTVSPropertyOp44
 70
     0
102
RTVSPropertyOp45
 70
     0
102
RTVSPropertyOp46
 70
     0
102
RTVSPropertyOp47
 70
     0
102
RTVSPropertyOp48
 70
     0
102
RTVSPropertyOp49
 70
     0
102
RTVSPropertyOp50
 70
     0
102
RTVSPropertyOp51
 70
     0
102
RTVSPropertyOp52
 70
     0
102
RTVSPropertyOp53
 70
     0
102
RTVSPropertyOp54
 70
     0
102
RTVSPropertyOp55
 70
     0
102
RTVSPropertyOp56
 70
     0
102
RTVSPropertyOp57
 70
     0
102
RTVSPropertyOp58
 70
     0
102
RTVSPropertyOp59
 70
     0
102
RTVSPropertyOp60
 70
     0
102
RTVSPropertyOp61
 70
     0
102
RTVSPropertyOp62
 70
     0
  0
XRECORD
  5
3A03
102
{ACAD_REACTORS
330
3A02
102
}
330
3A02
100
AcDbXrecord
280
     1
102
RTVSPost2010Prop28
280
     0
102
RTVSPost2010PropOp28
 70
     1
102
RTVSPost2010Prop29
280
     1
102
RTVSPost2010PropOp29
 70
     1
102
RTVSPost2010Prop30
280
     1
102
RTVSPost2010PropOp30
 70
     1
102
RTVSPost2010Prop31
280
     0
102
RTVSPost2010PropOp31
 70
     1
102
RTVSPost2010Prop32
280
     0
102
RTVSPost2010PropOp32
 70
     1
102
RTVSPost2010Prop33
280
     0
102
RTVSPost2010PropOp33
 70
     1
102
RTVSPost2010Prop34
280
     0
102
RTVSPost2010PropOp34
 70
     1
102
RTVSPost2010Prop35
280
     0
102
RTVSPost2010PropOp35
 70
     1
102
RTVSPost2010Prop36
280
     0
102
RTVSPost2010PropOp36
 70
     1
102
RTVSPost2010Prop37
 90
       50
102
RTVSPost2010PropOp37
 70
     1
102
RTVSPost2010Prop38
140
0.0
102
RTVSPost2010PropOp38
 70
     1
102
RTVSPost2010Prop39
140
1.0
102
RTVSPost2010PropOp39
 70
     1
102
RTVSPost2010Prop40
 90
        0
102
RTVSPost2010PropOp40
 70
     1
102
RTVSPost2010Prop41ColorIndex
 90
       18
102
RTVSPost2010Prop41ColorRGB
 90
        0
102
RTVSPost2010PropOp41
 70
     1
102
RTVSPost2010Prop42
 90
       50
102
RTVSPost2010PropOp42
 70
     1
102
RTVSPost2010Prop43
 90
        3
102
RTVSPost2010PropOp43
 70
     1
102
RTVSPost2010Prop44ColorIndex
 90
        5
102
RTVSPost2010Prop44ColorRGB
 90
      255
102
RTVSPost2010PropOp44
 70
     1
102
RTVSPost2010Prop45
280
     0
102
RTVSPost2010PropOp45
 70
     1
102
RTVSPost2010Prop46
 90
       50
102
RTVSPost2010PropOp46
 70
     1
102
RTVSPost2010Prop47
 90
       50
102
RTVSPost2010PropOp47
 70
     1
102
RTVSPost2010Prop48
 90
       50
102
RTVSPost2010PropOp48
 70
     1
102
RTVSPost2010Prop49
280
     0
102
RTVSPost2010PropOp49
 70
     1
102
RTVSPost2010Prop50
 90
       50
102
RTVSPost2010PropOp50
 70
     1
102
RTVSPost2010Prop51ColorIndex
 90
      256
102
RTVSPost2010Prop51ColorRGB
 90
-16777216
102
RTVSPost2010PropOp51
 70
     0
102
RTVSPost2010Prop52
140
1.0
102
RTVSPost2010PropOp52
 70
     0
102
RTVSPost2010Prop53
 90
        2
102
RTVSPost2010PropOp53
 70
     1
102
RTVSPost2010Prop54
  1
strokes_ogs.tif
102
RTVSPost2010PropOp54
 70
     1
102
RTVSPost2010Prop55
280
     0
102
RTVSPost2010PropOp55
 70
     1
102
RTVSPost2010Prop56
140
1.0
102
RTVSPost2010PropOp56
 70
     1
102
RTVSPost2010Prop57
140
1.0
102
RTVSPost2010PropOp57
 70
     1
102
RTVSPropertyOp0
 70
     1
102
RTVSPropertyOp1
 70
     1
102
RTVSPropertyOp2
 70
     1
102
RTVSPropertyOp3
 70
     1
102
RTVSPropertyOp4
 70
     1
102
RTVSPropertyOp5
 70
     1
102
RTVSPropertyOp6
 70
     1
102
RTVSPropertyOp7
 70
     1
102
RTVSPropertyOp8
 70
     1
102
RTVSPropertyOp9
 70
     1
102
RTVSPropertyOp10
 70
     1
102
RTVSPropertyOp11
 70
     1
102
RTVSPropertyOp12
 70
     1
102
RTVSPropertyOp13
 70
     1
102
RTVSPropertyOp14
 70
     1
102
RTVSPropertyOp15
 70
     1
102
RTVSPropertyOp16
 70
     1
102
RTVSPropertyOp17
 70
     1
102
RTVSPropertyOp18
 70
     1
102
RTVSPropertyOp19
 70
     1
102
RTVSPropertyOp20
 70
     1
102
RTVSPropertyOp21
 70
     1
102
RTVSPropertyOp22
 70
     1
102
RTVSPropertyOp23
 70
     1
102
RTVSPropertyOp24
 70
     1
102
RTVSPropertyOp25
 70
     1
102
RTVSPropertyOp26
 70
     1
102
RTVSPropertyOp27
 70
     1
102
RTVSPropertyOp28
 70
     1
102
RTVSPropertyOp29
 70
     1
102
RTVSPropertyOp30
 70
     1
102
RTVSPropertyOp31
 70
     1
102
RTVSPropertyOp32
 70
     1
102
RTVSPropertyOp33
 70
     1
102
RTVSPropertyOp34
 70
     1
102
RTVSPropertyOp35
 70
     1
102
RTVSPropertyOp36
 70
     1
102
RTVSPropertyOp37
 70
     1
102
RTVSPropertyOp38
 70
     1
102
RTVSPropertyOp39
 70
     1
102
RTVSPropertyOp40
 70
     1
102
RTVSPropertyOp41
 70
     1
102
RTVSPropertyOp42
 70
     1
102
RTVSPropertyOp43
 70
     1
102
RTVSPropertyOp44
 70
     1
102
RTVSPropertyOp45
 70
     1
102
RTVSPropertyOp46
 70
     1
102
RTVSPropertyOp47
 70
     1
102
RTVSPropertyOp48
 70
     1
102
RTVSPropertyOp49
 70
     1
102
RTVSPropertyOp50
 70
     1
102
RTVSPropertyOp51
 70
     0
102
RTVSPropertyOp52
 70
     0
102
RTVSPropertyOp53
 70
     1
102
RTVSPropertyOp54
 70
     1
102
RTVSPropertyOp55
 70
     1
102
RTVSPropertyOp56
 70
     1
102
RTVSPropertyOp57
 70
     1
102
RTVSPropertyOp58
 70
     1
102
RTVSPropertyOp59
 70
     1
102
RTVSPropertyOp60
 70
     1
102
RTVSPropertyOp61
 70
     1
102
RTVSPropertyOp62
 70
     1
  0
XRECORD
  5
3A15
102
{ACAD_REACTORS
330
3A14
102
}
330
3A14
100
AcDbXrecord
280
     1
102
RTVSPost2010Prop28
280
     0
102
RTVSPost2010PropOp28
 70
     0
102
RTVSPost2010Prop29
280
     1
102
RTVSPost2010PropOp29
 70
     0
102
RTVSPost2010Prop30
280
     1
102
RTVSPost2010PropOp30
 70
     0
102
RTVSPost2010Prop31
280
     0
102
RTVSPost2010PropOp31
 70
     0
102
RTVSPost2010Prop32
280
     0
102
RTVSPost2010PropOp32
 70
     0
102
RTVSPost2010Prop33
280
     0
102
RTVSPost2010PropOp33
 70
     0
102
RTVSPost2010Prop34
280
     0
102
RTVSPost2010PropOp34
 70
     0
102
RTVSPost2010Prop35
280
     0
102
RTVSPost2010PropOp35
 70
     0
102
RTVSPost2010Prop36
280
     0
102
RTVSPost2010PropOp36
 70
     0
102
RTVSPost2010Prop37
 90
       50
102
RTVSPost2010PropOp37
 70
     0
102
RTVSPost2010Prop38
140
0.0
102
RTVSPost2010PropOp38
 70
     0
102
RTVSPost2010Prop39
140
1.0
102
RTVSPost2010PropOp39
 70
     0
102
RTVSPost2010Prop40
 90
        0
102
RTVSPost2010PropOp40
 70
     0
102
RTVSPost2010Prop41ColorIndex
 90
       18
102
RTVSPost2010Prop41ColorRGB
 90
        0
102
RTVSPost2010PropOp41
 70
     0
102
RTVSPost2010Prop42
 90
       50
102
RTVSPost2010PropOp42
 70
     0
102
RTVSPost2010Prop43
 90
        3
102
RTVSPost2010PropOp43
 70
     0
102
RTVSPost2010Prop44ColorIndex
 90
        5
102
RTVSPost2010Prop44ColorRGB
 90
      255
102
RTVSPost2010PropOp44
 70
     0
102
RTVSPost2010Prop45
280
     0
102
RTVSPost2010PropOp45
 70
     0
102
RTVSPost2010Prop46
 90
       50
102
RTVSPost2010PropOp46
 70
     0
102
RTVSPost2010Prop47
 90
       50
102
RTVSPost2010PropOp47
 70
     0
102
RTVSPost2010Prop48
 90
       50
102
RTVSPost2010PropOp48
 70
     0
102
RTVSPost2010Prop49
280
     0
102
RTVSPost2010PropOp49
 70
     0
102
RTVSPost2010Prop50
 90
       50
102
RTVSPost2010PropOp50
 70
     0
102
RTVSPost2010Prop51ColorIndex
 90
      256
102
RTVSPost2010Prop51ColorRGB
 90
-16777216
102
RTVSPost2010PropOp51
 70
     0
102
RTVSPost2010Prop52
140
1.0
102
RTVSPost2010PropOp52
 70
     0
102
RTVSPost2010Prop53
 90
        2
102
RTVSPost2010PropOp53
 70
     0
102
RTVSPost2010Prop54
  1
strokes_ogs.tif
102
RTVSPost2010PropOp54
 70
     0
102
RTVSPost2010Prop55
280
     0
102
RTVSPost2010PropOp55
 70
     0
102
RTVSPost2010Prop56
140
1.0
102
RTVSPost2010PropOp56
 70
     0
102
RTVSPost2010Prop57
140
1.0
102
RTVSPost2010PropOp57
 70
     0
102
RTVSPropertyOp0
 70
     0
102
RTVSPropertyOp1
 70
     0
102
RTVSPropertyOp2
 70
     0
102
RTVSPropertyOp3
 70
     0
102
RTVSPropertyOp4
 70
     0
102
RTVSPropertyOp5
 70
     0
102
RTVSPropertyOp6
 70
     0
102
RTVSPropertyOp7
 70
     0
102
RTVSPropertyOp8
 70
     0
102
RTVSPropertyOp9
 70
     0
102
RTVSPropertyOp10
 70
     0
102
RTVSPropertyOp11
 70
     0
102
RTVSPropertyOp12
 70
     0
102
RTVSPropertyOp13
 70
     0
102
RTVSPropertyOp14
 70
     2
102
RTVSPropertyOp15
 70
     0
102
RTVSPropertyOp16
 70
     0
102
RTVSPropertyOp17
 70
     0
102
RTVSPropertyOp18
 70
     0
102
RTVSPropertyOp19
 70
     0
102
RTVSPropertyOp20
 70
     0
102
RTVSPropertyOp21
 70
     0
102
RTVSPropertyOp22
 70
     0
102
RTVSPropertyOp23
 70
     0
102
RTVSPropertyOp24
 70
     0
102
RTVSPropertyOp25
 70
     0
102
RTVSPropertyOp26
 70
     0
102
RTVSPropertyOp27
 70
     0
102
RTVSPropertyOp28
 70
     0
102
RTVSPropertyOp29
 70
     0
102
RTVSPropertyOp30
 70
     0
102
RTVSPropertyOp31
 70
     0
102
RTVSPropertyOp32
 70
     0
102
RTVSPropertyOp33
 70
     0
102
RTVSPropertyOp34
 70
     0
102
RTVSPropertyOp35
 70
     0
102
RTVSPropertyOp36
 70
     0
102
RTVSPropertyOp37
 70
     0
102
RTVSPropertyOp38
 70
     0
102
RTVSPropertyOp39
 70
     0
102
RTVSPropertyOp40
 70
     0
102
RTVSPropertyOp41
 70
     0
102
RTVSPropertyOp42
 70
     0
102
RTVSPropertyOp43
 70
     0
102
RTVSPropertyOp44
 70
     0
102
RTVSPropertyOp45
 70
     0
102
RTVSPropertyOp46
 70
     0
102
RTVSPropertyOp47
 70
     0
102
RTVSPropertyOp48
 70
     0
102
RTVSPropertyOp49
 70
     0
102
RTVSPropertyOp50
 70
     0
102
RTVSPropertyOp51
 70
     0
102
RTVSPropertyOp52
 70
     0
102
RTVSPropertyOp53
 70
     0
102
RTVSPropertyOp54
 70
     0
102
RTVSPropertyOp55
 70
     0
102
RTVSPropertyOp56
 70
     0
102
RTVSPropertyOp57
 70
     0
102
RTVSPropertyOp58
 70
     0
102
RTVSPropertyOp59
 70
     0
102
RTVSPropertyOp60
 70
     0
102
RTVSPropertyOp61
 70
     0
102
RTVSPropertyOp62
 70
     0
  0
XRECORD
  5
39FB
102
{ACAD_REACTORS
330
39FA
102
}
330
39FA
100
AcDbXrecord
280
     1
102
RTVSPost2010Prop28
280
     0
102
RTVSPost2010PropOp28
 70
     1
102
RTVSPost2010Prop29
280
     1
102
RTVSPost2010PropOp29
 70
     1
102
RTVSPost2010Prop30
280
     1
102
RTVSPost2010PropOp30
 70
     1
102
RTVSPost2010Prop31
280
     0
102
RTVSPost2010PropOp31
 70
     1
102
RTVSPost2010Prop32
280
     0
102
RTVSPost2010PropOp32
 70
     1
102
RTVSPost2010Prop33
280
     0
102
RTVSPost2010PropOp33
 70
     1
102
RTVSPost2010Prop34
280
     0
102
RTVSPost2010PropOp34
 70
     1
102
RTVSPost2010Prop35
280
     0
102
RTVSPost2010PropOp35
 70
     1
102
RTVSPost2010Prop36
280
     0
102
RTVSPost2010PropOp36
 70
     1
102
RTVSPost2010Prop37
 90
       50
102
RTVSPost2010PropOp37
 70
     1
102
RTVSPost2010Prop38
140
0.0
102
RTVSPost2010PropOp38
 70
     1
102
RTVSPost2010Prop39
140
1.0
102
RTVSPost2010PropOp39
 70
     1
102
RTVSPost2010Prop40
 90
        0
102
RTVSPost2010PropOp40
 70
     1
102
RTVSPost2010Prop41ColorIndex
 90
       18
102
RTVSPost2010Prop41ColorRGB
 90
        0
102
RTVSPost2010PropOp41
 70
     1
102
RTVSPost2010Prop42
 90
       50
102
RTVSPost2010PropOp42
 70
     1
102
RTVSPost2010Prop43
 90
        3
102
RTVSPost2010PropOp43
 70
     1
102
RTVSPost2010Prop44ColorIndex
 90
        5
102
RTVSPost2010Prop44ColorRGB
 90
      255
102
RTVSPost2010PropOp44
 70
     1
102
RTVSPost2010Prop45
280
     0
102
RTVSPost2010PropOp45
 70
     1
102
RTVSPost2010Prop46
 90
       50
102
RTVSPost2010PropOp46
 70
     1
102
RTVSPost2010Prop47
 90
       50
102
RTVSPost2010PropOp47
 70
     1
102
RTVSPost2010Prop48
 90
       50
102
RTVSPost2010PropOp48
 70
     1
102
RTVSPost2010Prop49
280
     0
102
RTVSPost2010PropOp49
 70
     1
102
RTVSPost2010Prop50
 90
       50
102
RTVSPost2010PropOp50
 70
     1
102
RTVSPost2010Prop51ColorIndex
 90
      256
102
RTVSPost2010Prop51ColorRGB
 90
-16777216
102
RTVSPost2010PropOp51
 70
     0
102
RTVSPost2010Prop52
140
1.0
102
RTVSPost2010PropOp52
 70
     0
102
RTVSPost2010Prop53
 90
        2
102
RTVSPost2010PropOp53
 70
     1
102
RTVSPost2010Prop54
  1
strokes_ogs.tif
102
RTVSPost2010PropOp54
 70
     1
102
RTVSPost2010Prop55
280
     0
102
RTVSPost2010PropOp55
 70
     1
102
RTVSPost2010Prop56
140
1.0
102
RTVSPost2010PropOp56
 70
     1
102
RTVSPost2010Prop57
140
1.0
102
RTVSPost2010PropOp57
 70
     1
102
RTVSPropertyOp0
 70
     1
102
RTVSPropertyOp1
 70
     1
102
RTVSPropertyOp2
 70
     1
102
RTVSPropertyOp3
 70
     1
102
RTVSPropertyOp4
 70
     1
102
RTVSPropertyOp5
 70
     1
102
RTVSPropertyOp6
 70
     1
102
RTVSPropertyOp7
 70
     1
102
RTVSPropertyOp8
 70
     1
102
RTVSPropertyOp9
 70
     1
102
RTVSPropertyOp10
 70
     1
102
RTVSPropertyOp11
 70
     1
102
RTVSPropertyOp12
 70
     1
102
RTVSPropertyOp13
 70
     1
102
RTVSPropertyOp14
 70
     1
102
RTVSPropertyOp15
 70
     1
102
RTVSPropertyOp16
 70
     1
102
RTVSPropertyOp17
 70
     1
102
RTVSPropertyOp18
 70
     1
102
RTVSPropertyOp19
 70
     1
102
RTVSPropertyOp20
 70
     1
102
RTVSPropertyOp21
 70
     1
102
RTVSPropertyOp22
 70
     1
102
RTVSPropertyOp23
 70
     1
102
RTVSPropertyOp24
 70
     1
102
RTVSPropertyOp25
 70
     1
102
RTVSPropertyOp26
 70
     1
102
RTVSPropertyOp27
 70
     1
102
RTVSPropertyOp28
 70
     1
102
RTVSPropertyOp29
 70
     1
102
RTVSPropertyOp30
 70
     1
102
RTVSPropertyOp31
 70
     1
102
RTVSPropertyOp32
 70
     1
102
RTVSPropertyOp33
 70
     1
102
RTVSPropertyOp34
 70
     1
102
RTVSPropertyOp35
 70
     1
102
RTVSPropertyOp36
 70
     1
102
RTVSPropertyOp37
 70
     1
102
RTVSPropertyOp38
 70
     1
102
RTVSPropertyOp39
 70
     1
102
RTVSPropertyOp40
 70
     1
102
RTVSPropertyOp41
 70
     1
102
RTVSPropertyOp42
 70
     1
102
RTVSPropertyOp43
 70
     1
102
RTVSPropertyOp44
 70
     1
102
RTVSPropertyOp45
 70
     1
102
RTVSPropertyOp46
 70
     1
102
RTVSPropertyOp47
 70
     1
102
RTVSPropertyOp48
 70
     1
102
RTVSPropertyOp49
 70
     1
102
RTVSPropertyOp50
 70
     1
102
RTVSPropertyOp51
 70
     0
102
RTVSPropertyOp52
 70
     0
102
RTVSPropertyOp53
 70
     1
102
RTVSPropertyOp54
 70
     1
102
RTVSPropertyOp55
 70
     1
102
RTVSPropertyOp56
 70
     1
102
RTVSPropertyOp57
 70
     1
102
RTVSPropertyOp58
 70
     1
102
RTVSPropertyOp59
 70
     1
102
RTVSPropertyOp60
 70
     1
102
RTVSPropertyOp61
 70
     1
102
RTVSPropertyOp62
 70
     1
  0
XRECORD
  5
3A11
102
{ACAD_REACTORS
330
3A10
102
}
330
3A10
100
AcDbXrecord
280
     1
102
RTVSPost2010Prop28
280
     0
102
RTVSPost2010PropOp28
 70
     1
102
RTVSPost2010Prop29
280
     1
102
RTVSPost2010PropOp29
 70
     1
102
RTVSPost2010Prop30
280
     1
102
RTVSPost2010PropOp30
 70
     1
102
RTVSPost2010Prop31
280
     0
102
RTVSPost2010PropOp31
 70
     1
102
RTVSPost2010Prop32
280
     0
102
RTVSPost2010PropOp32
 70
     1
102
RTVSPost2010Prop33
280
     0
102
RTVSPost2010PropOp33
 70
     1
102
RTVSPost2010Prop34
280
     0
102
RTVSPost2010PropOp34
 70
     1
102
RTVSPost2010Prop35
280
     0
102
RTVSPost2010PropOp35
 70
     1
102
RTVSPost2010Prop36
280
     0
102
RTVSPost2010PropOp36
 70
     1
102
RTVSPost2010Prop37
 90
       50
102
RTVSPost2010PropOp37
 70
     1
102
RTVSPost2010Prop38
140
0.0
102
RTVSPost2010PropOp38
 70
     1
102
RTVSPost2010Prop39
140
1.0
102
RTVSPost2010PropOp39
 70
     1
102
RTVSPost2010Prop40
 90
        0
102
RTVSPost2010PropOp40
 70
     1
102
RTVSPost2010Prop41ColorIndex
 90
       18
102
RTVSPost2010Prop41ColorRGB
 90
        0
102
RTVSPost2010PropOp41
 70
     1
102
RTVSPost2010Prop42
 90
       50
102
RTVSPost2010PropOp42
 70
     1
102
RTVSPost2010Prop43
 90
        3
102
RTVSPost2010PropOp43
 70
     1
102
RTVSPost2010Prop44ColorIndex
 90
        5
102
RTVSPost2010Prop44ColorRGB
 90
      255
102
RTVSPost2010PropOp44
 70
     1
102
RTVSPost2010Prop45
280
     0
102
RTVSPost2010PropOp45
 70
     1
102
RTVSPost2010Prop46
 90
       50
102
RTVSPost2010PropOp46
 70
     1
102
RTVSPost2010Prop47
 90
       50
102
RTVSPost2010PropOp47
 70
     1
102
RTVSPost2010Prop48
 90
       50
102
RTVSPost2010PropOp48
 70
     1
102
RTVSPost2010Prop49
280
     0
102
RTVSPost2010PropOp49
 70
     1
102
RTVSPost2010Prop50
 90
       50
102
RTVSPost2010PropOp50
 70
     1
102
RTVSPost2010Prop51ColorIndex
 90
      256
102
RTVSPost2010Prop51ColorRGB
 90
-16777216
102
RTVSPost2010PropOp51
 70
     0
102
RTVSPost2010Prop52
140
1.0
102
RTVSPost2010PropOp52
 70
     0
102
RTVSPost2010Prop53
 90
        2
102
RTVSPost2010PropOp53
 70
     1
102
RTVSPost2010Prop54
  1
strokes_ogs.tif
102
RTVSPost2010PropOp54
 70
     1
102
RTVSPost2010Prop55
280
     0
102
RTVSPost2010PropOp55
 70
     1
102
RTVSPost2010Prop56
140
1.0
102
RTVSPost2010PropOp56
 70
     1
102
RTVSPost2010Prop57
140
1.0
102
RTVSPost2010PropOp57
 70
     1
102
RTVSPropertyOp0
 70
     1
102
RTVSPropertyOp1
 70
     1
102
RTVSPropertyOp2
 70
     1
102
RTVSPropertyOp3
 70
     1
102
RTVSPropertyOp4
 70
     1
102
RTVSPropertyOp5
 70
     1
102
RTVSPropertyOp6
 70
     1
102
RTVSPropertyOp7
 70
     1
102
RTVSPropertyOp8
 70
     1
102
RTVSPropertyOp9
 70
     1
102
RTVSPropertyOp10
 70
     1
102
RTVSPropertyOp11
 70
     1
102
RTVSPropertyOp12
 70
     1
102
RTVSPropertyOp13
 70
     1
102
RTVSPropertyOp14
 70
     1
102
RTVSPropertyOp15
 70
     1
102
RTVSPropertyOp16
 70
     1
102
RTVSPropertyOp17
 70
     1
102
RTVSPropertyOp18
 70
     1
102
RTVSPropertyOp19
 70
     1
102
RTVSPropertyOp20
 70
     1
102
RTVSPropertyOp21
 70
     1
102
RTVSPropertyOp22
 70
     1
102
RTVSPropertyOp23
 70
     1
102
RTVSPropertyOp24
 70
     1
102
RTVSPropertyOp25
 70
     1
102
RTVSPropertyOp26
 70
     1
102
RTVSPropertyOp27
 70
     1
102
RTVSPropertyOp28
 70
     1
102
RTVSPropertyOp29
 70
     1
102
RTVSPropertyOp30
 70
     1
102
RTVSPropertyOp31
 70
     1
102
RTVSPropertyOp32
 70
     1
102
RTVSPropertyOp33
 70
     1
102
RTVSPropertyOp34
 70
     1
102
RTVSPropertyOp35
 70
     1
102
RTVSPropertyOp36
 70
     1
102
RTVSPropertyOp37
 70
     1
102
RTVSPropertyOp38
 70
     1
102
RTVSPropertyOp39
 70
     1
102
RTVSPropertyOp40
 70
     1
102
RTVSPropertyOp41
 70
     1
102
RTVSPropertyOp42
 70
     1
102
RTVSPropertyOp43
 70
     1
102
RTVSPropertyOp44
 70
     1
102
RTVSPropertyOp45
 70
     1
102
RTVSPropertyOp46
 70
     1
102
RTVSPropertyOp47
 70
     1
102
RTVSPropertyOp48
 70
     1
102
RTVSPropertyOp49
 70
     1
102
RTVSPropertyOp50
 70
     1
102
RTVSPropertyOp51
 70
     0
102
RTVSPropertyOp52
 70
     0
102
RTVSPropertyOp53
 70
     1
102
RTVSPropertyOp54
 70
     1
102
RTVSPropertyOp55
 70
     1
102
RTVSPropertyOp56
 70
     1
102
RTVSPropertyOp57
 70
     1
102
RTVSPropertyOp58
 70
     1
102
RTVSPropertyOp59
 70
     1
102
RTVSPropertyOp60
 70
     1
102
RTVSPropertyOp61
 70
     1
102
RTVSPropertyOp62
 70
     1
  0
XRECORD
  5
3A0F
102
{ACAD_REACTORS
330
3A0E
102
}
330
3A0E
100
AcDbXrecord
280
     1
102
RTVSPost2010Prop28
280
     0
102
RTVSPost2010PropOp28
 70
     1
102
RTVSPost2010Prop29
280
     1
102
RTVSPost2010PropOp29
 70
     1
102
RTVSPost2010Prop30
280
     1
102
RTVSPost2010PropOp30
 70
     1
102
RTVSPost2010Prop31
280
     0
102
RTVSPost2010PropOp31
 70
     1
102
RTVSPost2010Prop32
280
     0
102
RTVSPost2010PropOp32
 70
     1
102
RTVSPost2010Prop33
280
     0
102
RTVSPost2010PropOp33
 70
     1
102
RTVSPost2010Prop34
280
     0
102
RTVSPost2010PropOp34
 70
     1
102
RTVSPost2010Prop35
280
     0
102
RTVSPost2010PropOp35
 70
     1
102
RTVSPost2010Prop36
280
     0
102
RTVSPost2010PropOp36
 70
     1
102
RTVSPost2010Prop37
 90
       50
102
RTVSPost2010PropOp37
 70
     1
102
RTVSPost2010Prop38
140
0.0
102
RTVSPost2010PropOp38
 70
     1
102
RTVSPost2010Prop39
140
1.0
102
RTVSPost2010PropOp39
 70
     1
102
RTVSPost2010Prop40
 90
        0
102
RTVSPost2010PropOp40
 70
     1
102
RTVSPost2010Prop41ColorIndex
 90
       18
102
RTVSPost2010Prop41ColorRGB
 90
        0
102
RTVSPost2010PropOp41
 70
     1
102
RTVSPost2010Prop42
 90
       50
102
RTVSPost2010PropOp42
 70
     1
102
RTVSPost2010Prop43
 90
        3
102
RTVSPost2010PropOp43
 70
     1
102
RTVSPost2010Prop44ColorIndex
 90
        5
102
RTVSPost2010Prop44ColorRGB
 90
      255
102
RTVSPost2010PropOp44
 70
     1
102
RTVSPost2010Prop45
280
     0
102
RTVSPost2010PropOp45
 70
     1
102
RTVSPost2010Prop46
 90
       50
102
RTVSPost2010PropOp46
 70
     1
102
RTVSPost2010Prop47
 90
       50
102
RTVSPost2010PropOp47
 70
     1
102
RTVSPost2010Prop48
 90
       50
102
RTVSPost2010PropOp48
 70
     1
102
RTVSPost2010Prop49
280
     0
102
RTVSPost2010PropOp49
 70
     1
102
RTVSPost2010Prop50
 90
       50
102
RTVSPost2010PropOp50
 70
     1
102
RTVSPost2010Prop51ColorIndex
 90
      256
102
RTVSPost2010Prop51ColorRGB
 90
-16777216
102
RTVSPost2010PropOp51
 70
     0
102
RTVSPost2010Prop52
140
1.0
102
RTVSPost2010PropOp52
 70
     0
102
RTVSPost2010Prop53
 90
        2
102
RTVSPost2010PropOp53
 70
     1
102
RTVSPost2010Prop54
  1
strokes_ogs.tif
102
RTVSPost2010PropOp54
 70
     1
102
RTVSPost2010Prop55
280
     0
102
RTVSPost2010PropOp55
 70
     1
102
RTVSPost2010Prop56
140
1.0
102
RTVSPost2010PropOp56
 70
     1
102
RTVSPost2010Prop57
140
1.0
102
RTVSPost2010PropOp57
 70
     1
102
RTVSPropertyOp0
 70
     1
102
RTVSPropertyOp1
 70
     1
102
RTVSPropertyOp2
 70
     1
102
RTVSPropertyOp3
 70
     1
102
RTVSPropertyOp4
 70
     1
102
RTVSPropertyOp5
 70
     1
102
RTVSPropertyOp6
 70
     1
102
RTVSPropertyOp7
 70
     1
102
RTVSPropertyOp8
 70
     1
102
RTVSPropertyOp9
 70
     1
102
RTVSPropertyOp10
 70
     1
102
RTVSPropertyOp11
 70
     1
102
RTVSPropertyOp12
 70
     1
102
RTVSPropertyOp13
 70
     1
102
RTVSPropertyOp14
 70
     1
102
RTVSPropertyOp15
 70
     1
102
RTVSPropertyOp16
 70
     1
102
RTVSPropertyOp17
 70
     1
102
RTVSPropertyOp18
 70
     1
102
RTVSPropertyOp19
 70
     1
102
RTVSPropertyOp20
 70
     1
102
RTVSPropertyOp21
 70
     1
102
RTVSPropertyOp22
 70
     1
102
RTVSPropertyOp23
 70
     1
102
RTVSPropertyOp24
 70
     1
102
RTVSPropertyOp25
 70
     1
102
RTVSPropertyOp26
 70
     1
102
RTVSPropertyOp27
 70
     1
102
RTVSPropertyOp28
 70
     1
102
RTVSPropertyOp29
 70
     1
102
RTVSPropertyOp30
 70
     1
102
RTVSPropertyOp31
 70
     1
102
RTVSPropertyOp32
 70
     1
102
RTVSPropertyOp33
 70
     1
102
RTVSPropertyOp34
 70
     1
102
RTVSPropertyOp35
 70
     1
102
RTVSPropertyOp36
 70
     1
102
RTVSPropertyOp37
 70
     1
102
RTVSPropertyOp38
 70
     1
102
RTVSPropertyOp39
 70
     1
102
RTVSPropertyOp40
 70
     1
102
RTVSPropertyOp41
 70
     1
102
RTVSPropertyOp42
 70
     1
102
RTVSPropertyOp43
 70
     1
102
RTVSPropertyOp44
 70
     1
102
RTVSPropertyOp45
 70
     1
102
RTVSPropertyOp46
 70
     1
102
RTVSPropertyOp47
 70
     1
102
RTVSPropertyOp48
 70
     1
102
RTVSPropertyOp49
 70
     1
102
RTVSPropertyOp50
 70
     1
102
RTVSPropertyOp51
 70
     0
102
RTVSPropertyOp52
 70
     0
102
RTVSPropertyOp53
 70
     1
102
RTVSPropertyOp54
 70
     1
102
RTVSPropertyOp55
 70
     1
102
RTVSPropertyOp56
 70
     1
102
RTVSPropertyOp57
 70
     1
102
RTVSPropertyOp58
 70
     1
102
RTVSPropertyOp59
 70
     1
102
RTVSPropertyOp60
 70
     1
102
RTVSPropertyOp61
 70
     1
102
RTVSPropertyOp62
 70
     1
  0
XRECORD
  5
3A09
102
{ACAD_REACTORS
330
3A08
102
}
330
3A08
100
AcDbXrecord
280
     1
102
RTVSPost2010Prop28
280
     0
102
RTVSPost2010PropOp28
 70
     1
102
RTVSPost2010Prop29
280
     1
102
RTVSPost2010PropOp29
 70
     1
102
RTVSPost2010Prop30
280
     1
102
RTVSPost2010PropOp30
 70
     1
102
RTVSPost2010Prop31
280
     0
102
RTVSPost2010PropOp31
 70
     1
102
RTVSPost2010Prop32
280
     0
102
RTVSPost2010PropOp32
 70
     1
102
RTVSPost2010Prop33
280
     0
102
RTVSPost2010PropOp33
 70
     1
102
RTVSPost2010Prop34
280
     0
102
RTVSPost2010PropOp34
 70
     1
102
RTVSPost2010Prop35
280
     0
102
RTVSPost2010PropOp35
 70
     1
102
RTVSPost2010Prop36
280
     0
102
RTVSPost2010PropOp36
 70
     1
102
RTVSPost2010Prop37
 90
       50
102
RTVSPost2010PropOp37
 70
     1
102
RTVSPost2010Prop38
140
0.0
102
RTVSPost2010PropOp38
 70
     1
102
RTVSPost2010Prop39
140
1.0
102
RTVSPost2010PropOp39
 70
     1
102
RTVSPost2010Prop40
 90
        0
102
RTVSPost2010PropOp40
 70
     1
102
RTVSPost2010Prop41ColorIndex
 90
       18
102
RTVSPost2010Prop41ColorRGB
 90
        0
102
RTVSPost2010PropOp41
 70
     1
102
RTVSPost2010Prop42
 90
       50
102
RTVSPost2010PropOp42
 70
     1
102
RTVSPost2010Prop43
 90
        3
102
RTVSPost2010PropOp43
 70
     1
102
RTVSPost2010Prop44ColorIndex
 90
        5
102
RTVSPost2010Prop44ColorRGB
 90
      255
102
RTVSPost2010PropOp44
 70
     1
102
RTVSPost2010Prop45
280
     0
102
RTVSPost2010PropOp45
 70
     1
102
RTVSPost2010Prop46
 90
       50
102
RTVSPost2010PropOp46
 70
     1
102
RTVSPost2010Prop47
 90
       50
102
RTVSPost2010PropOp47
 70
     1
102
RTVSPost2010Prop48
 90
       50
102
RTVSPost2010PropOp48
 70
     1
102
RTVSPost2010Prop49
280
     0
102
RTVSPost2010PropOp49
 70
     1
102
RTVSPost2010Prop50
 90
       50
102
RTVSPost2010PropOp50
 70
     1
102
RTVSPost2010Prop51ColorIndex
 90
      256
102
RTVSPost2010Prop51ColorRGB
 90
-16777216
102
RTVSPost2010PropOp51
 70
     0
102
RTVSPost2010Prop52
140
1.0
102
RTVSPost2010PropOp52
 70
     0
102
RTVSPost2010Prop53
 90
        2
102
RTVSPost2010PropOp53
 70
     1
102
RTVSPost2010Prop54
  1
strokes_ogs.tif
102
RTVSPost2010PropOp54
 70
     1
102
RTVSPost2010Prop55
280
     0
102
RTVSPost2010PropOp55
 70
     1
102
RTVSPost2010Prop56
140
1.0
102
RTVSPost2010PropOp56
 70
     1
102
RTVSPost2010Prop57
140
1.0
102
RTVSPost2010PropOp57
 70
     1
102
RTVSPropertyOp0
 70
     1
102
RTVSPropertyOp1
 70
     1
102
RTVSPropertyOp2
 70
     1
102
RTVSPropertyOp3
 70
     1
102
RTVSPropertyOp4
 70
     1
102
RTVSPropertyOp5
 70
     1
102
RTVSPropertyOp6
 70
     1
102
RTVSPropertyOp7
 70
     1
102
RTVSPropertyOp8
 70
     1
102
RTVSPropertyOp9
 70
     1
102
RTVSPropertyOp10
 70
     1
102
RTVSPropertyOp11
 70
     1
102
RTVSPropertyOp12
 70
     1
102
RTVSPropertyOp13
 70
     1
102
RTVSPropertyOp14
 70
     1
102
RTVSPropertyOp15
 70
     1
102
RTVSPropertyOp16
 70
     1
102
RTVSPropertyOp17
 70
     1
102
RTVSPropertyOp18
 70
     1
102
RTVSPropertyOp19
 70
     1
102
RTVSPropertyOp20
 70
     1
102
RTVSPropertyOp21
 70
     1
102
RTVSPropertyOp22
 70
     1
102
RTVSPropertyOp23
 70
     1
102
RTVSPropertyOp24
 70
     1
102
RTVSPropertyOp25
 70
     1
102
RTVSPropertyOp26
 70
     1
102
RTVSPropertyOp27
 70
     1
102
RTVSPropertyOp28
 70
     1
102
RTVSPropertyOp29
 70
     1
102
RTVSPropertyOp30
 70
     1
102
RTVSPropertyOp31
 70
     1
102
RTVSPropertyOp32
 70
     1
102
RTVSPropertyOp33
 70
     1
102
RTVSPropertyOp34
 70
     1
102
RTVSPropertyOp35
 70
     1
102
RTVSPropertyOp36
 70
     1
102
RTVSPropertyOp37
 70
     1
102
RTVSPropertyOp38
 70
     1
102
RTVSPropertyOp39
 70
     1
102
RTVSPropertyOp40
 70
     1
102
RTVSPropertyOp41
 70
     1
102
RTVSPropertyOp42
 70
     1
102
RTVSPropertyOp43
 70
     1
102
RTVSPropertyOp44
 70
     1
102
RTVSPropertyOp45
 70
     1
102
RTVSPropertyOp46
 70
     1
102
RTVSPropertyOp47
 70
     1
102
RTVSPropertyOp48
 70
     1
102
RTVSPropertyOp49
 70
     1
102
RTVSPropertyOp50
 70
     1
102
RTVSPropertyOp51
 70
     0
102
RTVSPropertyOp52
 70
     0
102
RTVSPropertyOp53
 70
     1
102
RTVSPropertyOp54
 70
     1
102
RTVSPropertyOp55
 70
     1
102
RTVSPropertyOp56
 70
     1
102
RTVSPropertyOp57
 70
     1
102
RTVSPropertyOp58
 70
     1
102
RTVSPropertyOp59
 70
     1
102
RTVSPropertyOp60
 70
     1
102
RTVSPropertyOp61
 70
     1
102
RTVSPropertyOp62
 70
     1
  0
XRECORD
  5
3A0B
102
{ACAD_REACTORS
330
3A0A
102
}
330
3A0A
100
AcDbXrecord
280
     1
102
RTVSPost2010Prop28
280
     0
102
RTVSPost2010PropOp28
 70
     1
102
RTVSPost2010Prop29
280
     1
102
RTVSPost2010PropOp29
 70
     1
102
RTVSPost2010Prop30
280
     1
102
RTVSPost2010PropOp30
 70
     1
102
RTVSPost2010Prop31
280
     0
102
RTVSPost2010PropOp31
 70
     1
102
RTVSPost2010Prop32
280
     0
102
RTVSPost2010PropOp32
 70
     1
102
RTVSPost2010Prop33
280
     0
102
RTVSPost2010PropOp33
 70
     1
102
RTVSPost2010Prop34
280
     0
102
RTVSPost2010PropOp34
 70
     1
102
RTVSPost2010Prop35
280
     0
102
RTVSPost2010PropOp35
 70
     1
102
RTVSPost2010Prop36
280
     0
102
RTVSPost2010PropOp36
 70
     1
102
RTVSPost2010Prop37
 90
       50
102
RTVSPost2010PropOp37
 70
     1
102
RTVSPost2010Prop38
140
0.0
102
RTVSPost2010PropOp38
 70
     1
102
RTVSPost2010Prop39
140
1.0
102
RTVSPost2010PropOp39
 70
     1
102
RTVSPost2010Prop40
 90
        0
102
RTVSPost2010PropOp40
 70
     1
102
RTVSPost2010Prop41ColorIndex
 90
       18
102
RTVSPost2010Prop41ColorRGB
 90
        0
102
RTVSPost2010PropOp41
 70
     1
102
RTVSPost2010Prop42
 90
       50
102
RTVSPost2010PropOp42
 70
     1
102
RTVSPost2010Prop43
 90
        3
102
RTVSPost2010PropOp43
 70
     1
102
RTVSPost2010Prop44ColorIndex
 90
        5
102
RTVSPost2010Prop44ColorRGB
 90
      255
102
RTVSPost2010PropOp44
 70
     1
102
RTVSPost2010Prop45
280
     0
102
RTVSPost2010PropOp45
 70
     1
102
RTVSPost2010Prop46
 90
       50
102
RTVSPost2010PropOp46
 70
     1
102
RTVSPost2010Prop47
 90
       50
102
RTVSPost2010PropOp47
 70
     1
102
RTVSPost2010Prop48
 90
       50
102
RTVSPost2010PropOp48
 70
     1
102
RTVSPost2010Prop49
280
     0
102
RTVSPost2010PropOp49
 70
     1
102
RTVSPost2010Prop50
 90
       50
102
RTVSPost2010PropOp50
 70
     1
102
RTVSPost2010Prop51ColorIndex
 90
      256
102
RTVSPost2010Prop51ColorRGB
 90
-16777216
102
RTVSPost2010PropOp51
 70
     0
102
RTVSPost2010Prop52
140
1.0
102
RTVSPost2010PropOp52
 70
     0
102
RTVSPost2010Prop53
 90
        2
102
RTVSPost2010PropOp53
 70
     1
102
RTVSPost2010Prop54
  1
strokes_ogs.tif
102
RTVSPost2010PropOp54
 70
     1
102
RTVSPost2010Prop55
280
     0
102
RTVSPost2010PropOp55
 70
     1
102
RTVSPost2010Prop56
140
1.0
102
RTVSPost2010PropOp56
 70
     1
102
RTVSPost2010Prop57
140
1.0
102
RTVSPost2010PropOp57
 70
     1
102
RTVSPropertyOp0
 70
     1
102
RTVSPropertyOp1
 70
     1
102
RTVSPropertyOp2
 70
     1
102
RTVSPropertyOp3
 70
     1
102
RTVSPropertyOp4
 70
     1
102
RTVSPropertyOp5
 70
     1
102
RTVSPropertyOp6
 70
     1
102
RTVSPropertyOp7
 70
     1
102
RTVSPropertyOp8
 70
     1
102
RTVSPropertyOp9
 70
     1
102
RTVSPropertyOp10
 70
     1
102
RTVSPropertyOp11
 70
     1
102
RTVSPropertyOp12
 70
     1
102
RTVSPropertyOp13
 70
     1
102
RTVSPropertyOp14
 70
     1
102
RTVSPropertyOp15
 70
     1
102
RTVSPropertyOp16
 70
     1
102
RTVSPropertyOp17
 70
     1
102
RTVSPropertyOp18
 70
     1
102
RTVSPropertyOp19
 70
     1
102
RTVSPropertyOp20
 70
     1
102
RTVSPropertyOp21
 70
     1
102
RTVSPropertyOp22
 70
     1
102
RTVSPropertyOp23
 70
     1
102
RTVSPropertyOp24
 70
     1
102
RTVSPropertyOp25
 70
     1
102
RTVSPropertyOp26
 70
     1
102
RTVSPropertyOp27
 70
     1
102
RTVSPropertyOp28
 70
     1
102
RTVSPropertyOp29
 70
     1
102
RTVSPropertyOp30
 70
     1
102
RTVSPropertyOp31
 70
     1
102
RTVSPropertyOp32
 70
     1
102
RTVSPropertyOp33
 70
     1
102
RTVSPropertyOp34
 70
     1
102
RTVSPropertyOp35
 70
     1
102
RTVSPropertyOp36
 70
     1
102
RTVSPropertyOp37
 70
     1
102
RTVSPropertyOp38
 70
     1
102
RTVSPropertyOp39
 70
     1
102
RTVSPropertyOp40
 70
     1
102
RTVSPropertyOp41
 70
     1
102
RTVSPropertyOp42
 70
     1
102
RTVSPropertyOp43
 70
     1
102
RTVSPropertyOp44
 70
     1
102
RTVSPropertyOp45
 70
     1
102
RTVSPropertyOp46
 70
     1
102
RTVSPropertyOp47
 70
     1
102
RTVSPropertyOp48
 70
     1
102
RTVSPropertyOp49
 70
     1
102
RTVSPropertyOp50
 70
     1
102
RTVSPropertyOp51
 70
     0
102
RTVSPropertyOp52
 70
     0
102
RTVSPropertyOp53
 70
     1
102
RTVSPropertyOp54
 70
     1
102
RTVSPropertyOp55
 70
     1
102
RTVSPropertyOp56
 70
     1
102
RTVSPropertyOp57
 70
     1
102
RTVSPropertyOp58
 70
     1
102
RTVSPropertyOp59
 70
     1
102
RTVSPropertyOp60
 70
     1
102
RTVSPropertyOp61
 70
     1
102
RTVSPropertyOp62
 70
     1
  0
XRECORD
  5
3A01
102
{ACAD_REACTORS
330
3A00
102
}
330
3A00
100
AcDbXrecord
280
     1
102
RTVSPost2010Prop28
280
     0
102
RTVSPost2010PropOp28
 70
     1
102
RTVSPost2010Prop29
280
     1
102
RTVSPost2010PropOp29
 70
     1
102
RTVSPost2010Prop30
280
     1
102
RTVSPost2010PropOp30
 70
     1
102
RTVSPost2010Prop31
280
     0
102
RTVSPost2010PropOp31
 70
     1
102
RTVSPost2010Prop32
280
     0
102
RTVSPost2010PropOp32
 70
     1
102
RTVSPost2010Prop33
280
     0
102
RTVSPost2010PropOp33
 70
     1
102
RTVSPost2010Prop34
280
     0
102
RTVSPost2010PropOp34
 70
     1
102
RTVSPost2010Prop35
280
     0
102
RTVSPost2010PropOp35
 70
     1
102
RTVSPost2010Prop36
280
     0
102
RTVSPost2010PropOp36
 70
     1
102
RTVSPost2010Prop37
 90
       50
102
RTVSPost2010PropOp37
 70
     1
102
RTVSPost2010Prop38
140
0.0
102
RTVSPost2010PropOp38
 70
     1
102
RTVSPost2010Prop39
140
1.0
102
RTVSPost2010PropOp39
 70
     1
102
RTVSPost2010Prop40
 90
        0
102
RTVSPost2010PropOp40
 70
     1
102
RTVSPost2010Prop41ColorIndex
 90
       18
102
RTVSPost2010Prop41ColorRGB
 90
        0
102
RTVSPost2010PropOp41
 70
     1
102
RTVSPost2010Prop42
 90
       50
102
RTVSPost2010PropOp42
 70
     1
102
RTVSPost2010Prop43
 90
        3
102
RTVSPost2010PropOp43
 70
     1
102
RTVSPost2010Prop44ColorIndex
 90
        5
102
RTVSPost2010Prop44ColorRGB
 90
      255
102
RTVSPost2010PropOp44
 70
     1
102
RTVSPost2010Prop45
280
     0
102
RTVSPost2010PropOp45
 70
     1
102
RTVSPost2010Prop46
 90
       50
102
RTVSPost2010PropOp46
 70
     1
102
RTVSPost2010Prop47
 90
       50
102
RTVSPost2010PropOp47
 70
     1
102
RTVSPost2010Prop48
 90
       50
102
RTVSPost2010PropOp48
 70
     1
102
RTVSPost2010Prop49
280
     0
102
RTVSPost2010PropOp49
 70
     1
102
RTVSPost2010Prop50
 90
       50
102
RTVSPost2010PropOp50
 70
     1
102
RTVSPost2010Prop51ColorIndex
 90
      256
102
RTVSPost2010Prop51ColorRGB
 90
-16777216
102
RTVSPost2010PropOp51
 70
     0
102
RTVSPost2010Prop52
140
1.0
102
RTVSPost2010PropOp52
 70
     0
102
RTVSPost2010Prop53
 90
        2
102
RTVSPost2010PropOp53
 70
     1
102
RTVSPost2010Prop54
  1
strokes_ogs.tif
102
RTVSPost2010PropOp54
 70
     1
102
RTVSPost2010Prop55
280
     0
102
RTVSPost2010PropOp55
 70
     1
102
RTVSPost2010Prop56
140
1.0
102
RTVSPost2010PropOp56
 70
     1
102
RTVSPost2010Prop57
140
1.0
102
RTVSPost2010PropOp57
 70
     1
102
RTVSPropertyOp0
 70
     1
102
RTVSPropertyOp1
 70
     1
102
RTVSPropertyOp2
 70
     1
102
RTVSPropertyOp3
 70
     1
102
RTVSPropertyOp4
 70
     1
102
RTVSPropertyOp5
 70
     1
102
RTVSPropertyOp6
 70
     1
102
RTVSPropertyOp7
 70
     1
102
RTVSPropertyOp8
 70
     1
102
RTVSPropertyOp9
 70
     1
102
RTVSPropertyOp10
 70
     1
102
RTVSPropertyOp11
 70
     1
102
RTVSPropertyOp12
 70
     1
102
RTVSPropertyOp13
 70
     1
102
RTVSPropertyOp14
 70
     1
102
RTVSPropertyOp15
 70
     1
102
RTVSPropertyOp16
 70
     1
102
RTVSPropertyOp17
 70
     1
102
RTVSPropertyOp18
 70
     1
102
RTVSPropertyOp19
 70
     1
102
RTVSPropertyOp20
 70
     1
102
RTVSPropertyOp21
 70
     1
102
RTVSPropertyOp22
 70
     1
102
RTVSPropertyOp23
 70
     1
102
RTVSPropertyOp24
 70
     1
102
RTVSPropertyOp25
 70
     1
102
RTVSPropertyOp26
 70
     1
102
RTVSPropertyOp27
 70
     1
102
RTVSPropertyOp28
 70
     1
102
RTVSPropertyOp29
 70
     1
102
RTVSPropertyOp30
 70
     1
102
RTVSPropertyOp31
 70
     1
102
RTVSPropertyOp32
 70
     1
102
RTVSPropertyOp33
 70
     1
102
RTVSPropertyOp34
 70
     1
102
RTVSPropertyOp35
 70
     1
102
RTVSPropertyOp36
 70
     1
102
RTVSPropertyOp37
 70
     1
102
RTVSPropertyOp38
 70
     1
102
RTVSPropertyOp39
 70
     1
102
RTVSPropertyOp40
 70
     1
102
RTVSPropertyOp41
 70
     1
102
RTVSPropertyOp42
 70
     1
102
RTVSPropertyOp43
 70
     1
102
RTVSPropertyOp44
 70
     1
102
RTVSPropertyOp45
 70
     1
102
RTVSPropertyOp46
 70
     1
102
RTVSPropertyOp47
 70
     1
102
RTVSPropertyOp48
 70
     1
102
RTVSPropertyOp49
 70
     1
102
RTVSPropertyOp50
 70
     1
102
RTVSPropertyOp51
 70
     0
102
RTVSPropertyOp52
 70
     0
102
RTVSPropertyOp53
 70
     1
102
RTVSPropertyOp54
 70
     1
102
RTVSPropertyOp55
 70
     1
102
RTVSPropertyOp56
 70
     1
102
RTVSPropertyOp57
 70
     1
102
RTVSPropertyOp58
 70
     1
102
RTVSPropertyOp59
 70
     1
102
RTVSPropertyOp60
 70
     1
102
RTVSPropertyOp61
 70
     1
102
RTVSPropertyOp62
 70
     1
  0
XRECORD
  5
39F5
102
{ACAD_REACTORS
330
39F4
102
}
330
39F4
100
AcDbXrecord
280
     1
102
RTVSPost2010Prop28
280
     0
102
RTVSPost2010PropOp28
 70
     1
102
RTVSPost2010Prop29
280
     1
102
RTVSPost2010PropOp29
 70
     1
102
RTVSPost2010Prop30
280
     1
102
RTVSPost2010PropOp30
 70
     1
102
RTVSPost2010Prop31
280
     0
102
RTVSPost2010PropOp31
 70
     1
102
RTVSPost2010Prop32
280
     0
102
RTVSPost2010PropOp32
 70
     1
102
RTVSPost2010Prop33
280
     0
102
RTVSPost2010PropOp33
 70
     1
102
RTVSPost2010Prop34
280
     0
102
RTVSPost2010PropOp34
 70
     1
102
RTVSPost2010Prop35
280
     0
102
RTVSPost2010PropOp35
 70
     1
102
RTVSPost2010Prop36
280
     0
102
RTVSPost2010PropOp36
 70
     1
102
RTVSPost2010Prop37
 90
       50
102
RTVSPost2010PropOp37
 70
     1
102
RTVSPost2010Prop38
140
0.0
102
RTVSPost2010PropOp38
 70
     1
102
RTVSPost2010Prop39
140
1.0
102
RTVSPost2010PropOp39
 70
     1
102
RTVSPost2010Prop40
 90
        0
102
RTVSPost2010PropOp40
 70
     1
102
RTVSPost2010Prop41ColorIndex
 90
       18
102
RTVSPost2010Prop41ColorRGB
 90
        0
102
RTVSPost2010PropOp41
 70
     1
102
RTVSPost2010Prop42
 90
       50
102
RTVSPost2010PropOp42
 70
     1
102
RTVSPost2010Prop43
 90
        3
102
RTVSPost2010PropOp43
 70
     1
102
RTVSPost2010Prop44ColorIndex
 90
        5
102
RTVSPost2010Prop44ColorRGB
 90
      255
102
RTVSPost2010PropOp44
 70
     1
102
RTVSPost2010Prop45
280
     0
102
RTVSPost2010PropOp45
 70
     1
102
RTVSPost2010Prop46
 90
       50
102
RTVSPost2010PropOp46
 70
     1
102
RTVSPost2010Prop47
 90
       50
102
RTVSPost2010PropOp47
 70
     1
102
RTVSPost2010Prop48
 90
       50
102
RTVSPost2010PropOp48
 70
     1
102
RTVSPost2010Prop49
280
     0
102
RTVSPost2010PropOp49
 70
     1
102
RTVSPost2010Prop50
 90
       50
102
RTVSPost2010PropOp50
 70
     1
102
RTVSPost2010Prop51ColorIndex
 90
      256
102
RTVSPost2010Prop51ColorRGB
 90
-16777216
102
RTVSPost2010PropOp51
 70
     0
102
RTVSPost2010Prop52
140
1.0
102
RTVSPost2010PropOp52
 70
     0
102
RTVSPost2010Prop53
 90
        2
102
RTVSPost2010PropOp53
 70
     1
102
RTVSPost2010Prop54
  1
strokes_ogs.tif
102
RTVSPost2010PropOp54
 70
     1
102
RTVSPost2010Prop55
280
     0
102
RTVSPost2010PropOp55
 70
     1
102
RTVSPost2010Prop56
140
1.0
102
RTVSPost2010PropOp56
 70
     1
102
RTVSPost2010Prop57
140
1.0
102
RTVSPost2010PropOp57
 70
     1
102
RTVSPropertyOp0
 70
     1
102
RTVSPropertyOp1
 70
     1
102
RTVSPropertyOp2
 70
     1
102
RTVSPropertyOp3
 70
     1
102
RTVSPropertyOp4
 70
     1
102
RTVSPropertyOp5
 70
     1
102
RTVSPropertyOp6
 70
     1
102
RTVSPropertyOp7
 70
     1
102
RTVSPropertyOp8
 70
     1
102
RTVSPropertyOp9
 70
     1
102
RTVSPropertyOp10
 70
     1
102
RTVSPropertyOp11
 70
     1
102
RTVSPropertyOp12
 70
     1
102
RTVSPropertyOp13
 70
     1
102
RTVSPropertyOp14
 70
     1
102
RTVSPropertyOp15
 70
     1
102
RTVSPropertyOp16
 70
     1
102
RTVSPropertyOp17
 70
     1
102
RTVSPropertyOp18
 70
     1
102
RTVSPropertyOp19
 70
     1
102
RTVSPropertyOp20
 70
     1
102
RTVSPropertyOp21
 70
     1
102
RTVSPropertyOp22
 70
     1
102
RTVSPropertyOp23
 70
     1
102
RTVSPropertyOp24
 70
     1
102
RTVSPropertyOp25
 70
     1
102
RTVSPropertyOp26
 70
     1
102
RTVSPropertyOp27
 70
     1
102
RTVSPropertyOp28
 70
     1
102
RTVSPropertyOp29
 70
     1
102
RTVSPropertyOp30
 70
     1
102
RTVSPropertyOp31
 70
     1
102
RTVSPropertyOp32
 70
     1
102
RTVSPropertyOp33
 70
     1
102
RTVSPropertyOp34
 70
     1
102
RTVSPropertyOp35
 70
     1
102
RTVSPropertyOp36
 70
     1
102
RTVSPropertyOp37
 70
     1
102
RTVSPropertyOp38
 70
     1
102
RTVSPropertyOp39
 70
     1
102
RTVSPropertyOp40
 70
     1
102
RTVSPropertyOp41
 70
     1
102
RTVSPropertyOp42
 70
     1
102
RTVSPropertyOp43
 70
     1
102
RTVSPropertyOp44
 70
     1
102
RTVSPropertyOp45
 70
     1
102
RTVSPropertyOp46
 70
     1
102
RTVSPropertyOp47
 70
     1
102
RTVSPropertyOp48
 70
     1
102
RTVSPropertyOp49
 70
     1
102
RTVSPropertyOp50
 70
     1
102
RTVSPropertyOp51
 70
     0
102
RTVSPropertyOp52
 70
     0
102
RTVSPropertyOp53
 70
     1
102
RTVSPropertyOp54
 70
     1
102
RTVSPropertyOp55
 70
     1
102
RTVSPropertyOp56
 70
     1
102
RTVSPropertyOp57
 70
     1
102
RTVSPropertyOp58
 70
     1
102
RTVSPropertyOp59
 70
     1
102
RTVSPropertyOp60
 70
     1
102
RTVSPropertyOp61
 70
     1
102
RTVSPropertyOp62
 70
     1
  0
XRECORD
  5
3A0D
102
{ACAD_REACTORS
330
3A0C
102
}
330
3A0C
100
AcDbXrecord
280
     1
102
RTVSPost2010Prop28
280
     0
102
RTVSPost2010PropOp28
 70
     1
102
RTVSPost2010Prop29
280
     1
102
RTVSPost2010PropOp29
 70
     1
102
RTVSPost2010Prop30
280
     1
102
RTVSPost2010PropOp30
 70
     1
102
RTVSPost2010Prop31
280
     0
102
RTVSPost2010PropOp31
 70
     1
102
RTVSPost2010Prop32
280
     0
102
RTVSPost2010PropOp32
 70
     1
102
RTVSPost2010Prop33
280
     0
102
RTVSPost2010PropOp33
 70
     1
102
RTVSPost2010Prop34
280
     0
102
RTVSPost2010PropOp34
 70
     1
102
RTVSPost2010Prop35
280
     0
102
RTVSPost2010PropOp35
 70
     1
102
RTVSPost2010Prop36
280
     0
102
RTVSPost2010PropOp36
 70
     1
102
RTVSPost2010Prop37
 90
       50
102
RTVSPost2010PropOp37
 70
     1
102
RTVSPost2010Prop38
140
0.0
102
RTVSPost2010PropOp38
 70
     1
102
RTVSPost2010Prop39
140
1.0
102
RTVSPost2010PropOp39
 70
     1
102
RTVSPost2010Prop40
 90
        0
102
RTVSPost2010PropOp40
 70
     1
102
RTVSPost2010Prop41ColorIndex
 90
       18
102
RTVSPost2010Prop41ColorRGB
 90
        0
102
RTVSPost2010PropOp41
 70
     1
102
RTVSPost2010Prop42
 90
       50
102
RTVSPost2010PropOp42
 70
     1
102
RTVSPost2010Prop43
 90
        3
102
RTVSPost2010PropOp43
 70
     1
102
RTVSPost2010Prop44ColorIndex
 90
        5
102
RTVSPost2010Prop44ColorRGB
 90
      255
102
RTVSPost2010PropOp44
 70
     1
102
RTVSPost2010Prop45
280
     0
102
RTVSPost2010PropOp45
 70
     1
102
RTVSPost2010Prop46
 90
       50
102
RTVSPost2010PropOp46
 70
     1
102
RTVSPost2010Prop47
 90
       50
102
RTVSPost2010PropOp47
 70
     1
102
RTVSPost2010Prop48
 90
       50
102
RTVSPost2010PropOp48
 70
     1
102
RTVSPost2010Prop49
280
     0
102
RTVSPost2010PropOp49
 70
     1
102
RTVSPost2010Prop50
 90
       50
102
RTVSPost2010PropOp50
 70
     1
102
RTVSPost2010Prop51ColorIndex
 90
      256
102
RTVSPost2010Prop51ColorRGB
 90
-16777216
102
RTVSPost2010PropOp51
 70
     0
102
RTVSPost2010Prop52
140
1.0
102
RTVSPost2010PropOp52
 70
     0
102
RTVSPost2010Prop53
 90
        2
102
RTVSPost2010PropOp53
 70
     1
102
RTVSPost2010Prop54
  1
strokes_ogs.tif
102
RTVSPost2010PropOp54
 70
     1
102
RTVSPost2010Prop55
280
     0
102
RTVSPost2010PropOp55
 70
     1
102
RTVSPost2010Prop56
140
1.0
102
RTVSPost2010PropOp56
 70
     1
102
RTVSPost2010Prop57
140
1.0
102
RTVSPost2010PropOp57
 70
     1
102
RTVSPropertyOp0
 70
     1
102
RTVSPropertyOp1
 70
     1
102
RTVSPropertyOp2
 70
     1
102
RTVSPropertyOp3
 70
     1
102
RTVSPropertyOp4
 70
     1
102
RTVSPropertyOp5
 70
     1
102
RTVSPropertyOp6
 70
     1
102
RTVSPropertyOp7
 70
     1
102
RTVSPropertyOp8
 70
     1
102
RTVSPropertyOp9
 70
     1
102
RTVSPropertyOp10
 70
     1
102
RTVSPropertyOp11
 70
     1
102
RTVSPropertyOp12
 70
     1
102
RTVSPropertyOp13
 70
     1
102
RTVSPropertyOp14
 70
     1
102
RTVSPropertyOp15
 70
     1
102
RTVSPropertyOp16
 70
     1
102
RTVSPropertyOp17
 70
     1
102
RTVSPropertyOp18
 70
     1
102
RTVSPropertyOp19
 70
     1
102
RTVSPropertyOp20
 70
     1
102
RTVSPropertyOp21
 70
     1
102
RTVSPropertyOp22
 70
     1
102
RTVSPropertyOp23
 70
     1
102
RTVSPropertyOp24
 70
     1
102
RTVSPropertyOp25
 70
     1
102
RTVSPropertyOp26
 70
     1
102
RTVSPropertyOp27
 70
     1
102
RTVSPropertyOp28
 70
     1
102
RTVSPropertyOp29
 70
     1
102
RTVSPropertyOp30
 70
     1
102
RTVSPropertyOp31
 70
     1
102
RTVSPropertyOp32
 70
     1
102
RTVSPropertyOp33
 70
     1
102
RTVSPropertyOp34
 70
     1
102
RTVSPropertyOp35
 70
     1
102
RTVSPropertyOp36
 70
     1
102
RTVSPropertyOp37
 70
     1
102
RTVSPropertyOp38
 70
     1
102
RTVSPropertyOp39
 70
     1
102
RTVSPropertyOp40
 70
     1
102
RTVSPropertyOp41
 70
     1
102
RTVSPropertyOp42
 70
     1
102
RTVSPropertyOp43
 70
     1
102
RTVSPropertyOp44
 70
     1
102
RTVSPropertyOp45
 70
     1
102
RTVSPropertyOp46
 70
     1
102
RTVSPropertyOp47
 70
     1
102
RTVSPropertyOp48
 70
     1
102
RTVSPropertyOp49
 70
     1
102
RTVSPropertyOp50
 70
     1
102
RTVSPropertyOp51
 70
     0
102
RTVSPropertyOp52
 70
     0
102
RTVSPropertyOp53
 70
     1
102
RTVSPropertyOp54
 70
     1
102
RTVSPropertyOp55
 70
     1
102
RTVSPropertyOp56
 70
     1
102
RTVSPropertyOp57
 70
     1
102
RTVSPropertyOp58
 70
     1
102
RTVSPropertyOp59
 70
     1
102
RTVSPropertyOp60
 70
     1
102
RTVSPropertyOp61
 70
     1
102
RTVSPropertyOp62
 70
     1
  0
ENDSEC
  0
EOF
