  0
SECTION
  2
HEADER
  9
$ACADVER
  1
AC1009
  9
$INSBASE
 10
0.0
 20
0.0
 30
0.0
  9
$EXTMIN
 10
0.0077109881836408
 20
-0.0000000005721544
 30
0.0
  9
$EXTMAX
 10
0.9924999996014442
 20
0.5580002136199777
 30
0.0
  9
$LIMMIN
 10
0.0
 20
0.0
  9
$LIMMAX
 10
420.0
 20
297.0
  9
$ORTHOMODE
 70
     1
  9
$REGENMODE
 70
     1
  9
$FILLMODE
 70
     1
  9
$QTEXTMODE
 70
     0
  9
$MIRRTEXT
 70
     0
  9
$DRAGMODE
 70
     2
  9
$LTSCALE
 40
1.0
  9
$OSMODE
 70
  2063
  9
$ATTMODE
 70
     1
  9
$TEXTSIZE
 40
2.5
  9
$TRACEWID
 40
1.0
  9
$TEXTSTYLE
  7
STANDARD
  9
$CLAYER
  8
0
  9
$CELTYPE
  6
BYLAYER
  9
$CECOLOR
 62
   256
  9
$DIMSCALE
 40
1.0
  9
$DIMASZ
 40
2.5
  9
$DIMEXO
 40
0.625
  9
$DIMDLI
 40
3.75
  9
$DIMRND
 40
0.0
  9
$DIMDLE
 40
0.0
  9
$DIMEXE
 40
1.25
  9
$DIMTP
 40
0.0
  9
$DIMTM
 40
0.0
  9
$DIMTXT
 40
2.5
  9
$DIMCEN
 40
2.5
  9
$DIMTSZ
 40
0.0
  9
$DIMTOL
 70
     0
  9
$DIMLIM
 70
     0
  9
$DIMTIH
 70
     0
  9
$DIMTOH
 70
     0
  9
$DIMSE1
 70
     0
  9
$DIMSE2
 70
     0
  9
$DIMTAD
 70
     1
  9
$DIMZIN
 70
     8
  9
$DIMBLK
  1

  9
$DIMASO
 70
     1
  9
$DIMSHO
 70
     1
  9
$DIMPOST
  1

  9
$DIMAPOST
  1

  9
$DIMALT
 70
     0
  9
$DIMALTD
 70
     3
  9
$DIMALTF
 40
0.03937007874016
  9
$DIMLFAC
 40
1.0
  9
$DIMTOFL
 70
     1
  9
$DIMTVP
 40
0.0
  9
$DIMTIX
 70
     0
  9
$DIMSOXD
 70
     0
  9
$DIMSAH
 70
     0
  9
$DIMBLK1
  1

  9
$DIMBLK2
  1

  9
$DIMSTYLE
  2
ISO-25
  9
$DIMCLRD
 70
     0
  9
$DIMCLRE
 70
     0
  9
$DIMCLRT
 70
     0
  9
$DIMTFAC
 40
1.0
  9
$DIMGAP
 40
0.625
  9
$LUNITS
 70
     2
  9
$LUPREC
 70
     4
  9
$SKETCHINC
 40
1.0
  9
$FILLETRAD
 40
0.0
  9
$AUNITS
 70
     0
  9
$AUPREC
 70
     0
  9
$MENU
  1
.
  9
$ELEVATION
 40
0.0
  9
$PELEVATION
 40
0.0
  9
$THICKNESS
 40
0.0
  9
$LIMCHECK
 70
     0
  9
$BLIPMODE
 70
     0
  9
$CHAMFERA
 40
0.0
  9
$CHAMFERB
 40
0.0
  9
$SKPOLY
 70
     0
  9
$TDCREATE
 40
2457225.5836552549
  9
$TDUPDATE
 40
2457268.4953751741
  9
$TDINDWG
 40
0.0102158796
  9
$TDUSRTIMER
 40
0.0102155324
  9
$USRTIMER
 70
     1
  9
$ANGBASE
 50
0.0
  9
$ANGDIR
 70
     0
  9
$PDMODE
 70
     3
  9
$PDSIZE
 40
-2.5
  9
$PLINEWID
 40
0.0
  9
$COORDS
 70
     1
  9
$SPLFRAME
 70
     0
  9
$SPLINETYPE
 70
     6
  9
$SPLINESEGS
 70
     8
  9
$ATTDIA
 70
     0
  9
$ATTREQ
 70
     1
  9
$HANDLING
 70
     1
  9
$HANDSEED
  5
11C332
  9
$SURFTAB1
 70
     6
  9
$SURFTAB2
 70
     6
  9
$SURFTYPE
 70
     6
  9
$SURFU
 70
     6
  9
$SURFV
 70
     6
  9
$UCSNAME
  2

  9
$UCSORG
 10
0.0
 20
0.0
 30
0.0
  9
$UCSXDIR
 10
1.0
 20
0.0
 30
0.0
  9
$UCSYDIR
 10
0.0
 20
1.0
 30
0.0
  9
$PUCSNAME
  2

  9
$PUCSORG
 10
0.0
 20
0.0
 30
0.0
  9
$PUCSXDIR
 10
1.0
 20
0.0
 30
0.0
  9
$PUCSYDIR
 10
0.0
 20
1.0
 30
0.0
  9
$USERI1
 70
     0
  9
$USERI2
 70
     0
  9
$USERI3
 70
     0
  9
$USERI4
 70
     0
  9
$USERI5
 70
     0
  9
$USERR1
 40
0.0
  9
$USERR2
 40
0.0
  9
$USERR3
 40
0.0
  9
$USERR4
 40
0.0
  9
$USERR5
 40
0.0
  9
$WORLDVIEW
 70
     1
  9
$SHADEDGE
 70
     3
  9
$SHADEDIF
 70
    70
  9
$TILEMODE
 70
     1
  9
$MAXACTVP
 70
    48
  9
$PLIMCHECK
 70
     0
  9
$PEXTMIN
 10
0.0
 20
0.0
 30
0.0
  9
$PEXTMAX
 10
0.0
 20
0.0
 30
0.0
  9
$PLIMMIN
 10
0.0
 20
0.0
  9
$PLIMMAX
 10
12.0
 20
9.0
  9
$UNITMODE
 70
     0
  9
$VISRETAIN
 70
     1
  9
$PLINEGEN
 70
     0
  9
$PSLTSCALE
 70
     1
  0
ENDSEC
  0
SECTION
  2
TABLES
  0
TABLE
  2
VPORT
 70
     1
  0
VPORT
  2
*ACTIVE
 70
     0
 10
0.0
 20
0.0
 11
1.0
 21
1.0
 12
-26.791238030193099
 22
-59.488832684857719
 13
0.0
 23
0.0
 14
10.0
 24
10.0
 15
10.0
 25
10.0
 16
0.0
 26
0.0
 36
1.0
 17
27.291343524085651
 27
59.767832791381629
 37
14.90110344212272
 40
0.5624464310382865
 41
2.4654255319148932
 42
50.0
 43
0.0
 44
0.0
 50
0.0
 51
0.0
 71
     0
 72
  1000
 73
     1
 74
     3
 75
     0
 76
     0
 77
     0
 78
     0
  0
ENDTAB
  0
TABLE
  2
LTYPE
 70
     2
  0
LTYPE
  2
CONTINUOUS
 70
     0
  3
Solid line
 72
    65
 73
     0
 40
0.0
  0
ENDTAB
  0
TABLE
  2
LAYER
 70
    11
  0
LAYER
  2
0
 70
     0
 62
     7
  6
CONTINUOUS
  0
ENDTAB
  0
TABLE
  2
STYLE
 70
     1
  0
STYLE
  2
STANDARD
 70
     0
 40
0.0
 41
1.0
 50
0.0
 71
     0
 42
2.5
  3
txt
  4

  0
ENDTAB
  0
TABLE
  2
VIEW
 70
     1
  0
ENDTAB
  0
TABLE
  2
UCS
 70
     0
  0
ENDTAB
  0
TABLE
  2
APPID
 70
    18
  0
APPID
  2
ACAD
 70
     0
  0
APPID
  2
ACAD_PSEXT
 70
     0
  0
APPID
  2
ACADANNOPO
 70
     0
  0
APPID
  2
ACADANNOTATIVE
 70
     0
  0
APPID
  2
ACAD_DSTYLE_DIMJAG
 70
     0
  0
APPID
  2
ACAD_DSTYLE_DIMTALN
 70
     0
  0
APPID
  2
ACAD_MLEADERVER
 70
     0
  0
APPID
  2
ACAD_NAV_VCDISPLAY
 70
     0
  0
APPID
  2
ACAD_EXEMPT_FROM_CAD_STANDARDS
 70
     0
  0
APPID
  2
AVE_RENDER
 70
     0
  0
APPID
  2
AVE_ENTITY_MATERIAL
 70
     0
  0
APPID
  2
AVE_FINISH
 70
     0
  0
APPID
  2
AVE_MATERIAL
 70
     0
  0
APPID
  2
AVE_GLOBAL
 70
     0
  0
APPID
  2
ACAECLAYERSTANDARD
 70
     0
  0
APPID
  2
ACCMTRANSPARENCY
 70
     0
  0
APPID
  2
ACAD_SPLINE_DATA
 70
     0
  0
APPID
  2
DCO15
 70
     0
  0
ENDTAB
  0
TABLE
  2
DIMSTYLE
 70
     3
  0
DIMSTYLE
  2
STANDARD
 70
     0
  3

  4

  5

  6

  7

 40
1.0
 41
0.18
 42
0.0625
 43
0.38
 44
0.18
 45
0.0
 46
0.0
 47
0.0
 48
0.0
140
0.18
141
0.09
142
0.0
143
25.399999999999999
144
1.0
145
0.0
146
1.0
147
0.09
 71
     0
 72
     0
 73
     1
 74
     1
 75
     0
 76
     0
 77
     0
 78
     0
170
     0
171
     2
172
     0
173
     0
174
     0
175
     0
176
     0
177
     0
178
     0
  0
DIMSTYLE
  2
ISO-25
 70
     0
  3

  4

  5

  6

  7

 40
1.0
 41
2.5
 42
0.625
 43
3.75
 44
1.25
 45
0.0
 46
0.0
 47
0.0
 48
0.0
140
2.5
141
2.5
142
0.0
143
0.03937007874016
144
1.0
145
0.0
146
1.0
147
0.625
 71
     0
 72
     0
 73
     0
 74
     0
 75
     0
 76
     0
 77
     1
 78
     8
170
     0
171
     3
172
     1
173
     0
174
     0
175
     0
176
     0
177
     0
178
     0
  0
ENDTAB
  0
ENDSEC
  0
SECTION
  2
BLOCKS
  0
BLOCK
  8
0
  2
$MODEL_SPACE
 70
     0
 10
0.0
 20
0.0
 30
0.0
  3
$MODEL_SPACE
  1

  0
ENDBLK
  5
21
  8
0
  0
BLOCK
 67
     1
  8
0
  2
$PAPER_SPACE
 70
     0
 10
0.0
 20
0.0
 30
0.0
  3
$PAPER_SPACE
  1

  0
ENDBLK
  5
D5
 67
     1
  8
0
  0
ENDSEC
  0
SECTION
  2
ENTITIES
  0
POLYLINE
  5
11C1E8
  8
0
 66
     1
 10
0.0
 20
0.0
 30
0.0
  0
VERTEX
  5
11C253
  8
0
 10
0.017710991319444
 20
0.0049998802185564
 30
0.0
  0
VERTEX
  5
11C254
  8
0
 10
0.0177109913194441
 20
0.5580002136199777
 30
0.0
  0
SEQEND
  5
11C255
  8
0
  0
POLYLINE
  5
11C1E9
  8
0
 66
     1
 10
0.0
 20
0.0
 30
0.0
  0
VERTEX
  5
11C256
  8
0
 10
0.9825000008579509
 20
0.004999788665822
 30
0.0
  0
VERTEX
  5
11C257
  8
0
 10
0.9825000008579511
 20
0.5580002136199774
 30
0.0
  0
SEQEND
  5
11C258
  8
0
  0
POLYLINE
  5
11C1EB
  8
0
 66
     1
 10
0.0
 20
0.0
 30
0.0
 70
     1
  0
VERTEX
  5
11C259
  8
0
 10
0.0217109913194436
 20
0.0059998802185561
 30
0.0
  0
VERTEX
  5
11C25A
  8
0
 10
0.0214610041262327
 20
0.0060340243505072
 30
0.0
  0
VERTEX
  5
11C25B
  8
0
 10
0.0212110145362564
 20
0.0061339123032744
 30
0.0
  0
VERTEX
  5
11C25C
  8
0
 10
0.0210039122237485
 20
0.0062928137975601
 30
0.0
  0
VERTEX
  5
11C25D
  8
0
 10
0.0208449909785034
 20
0.006499900954434
 30
0.0
  0
VERTEX
  5
11C25E
  8
0
 10
0.0207450800253231
 20
0.00674106242351
 30
0.0
  0
VERTEX
  5
11C25F
  8
0
 10
0.0207109875047461
 20
0.006999864959767
 30
0.0
  0
VERTEX
  5
11C260
  8
0
 10
0.0207109875047462
 20
0.2740000005636757
 30
0.0
  0
VERTEX
  5
11C261
  8
0
 10
0.0207450800253231
 20
0.2742588030999327
 30
0.0
  0
VERTEX
  5
11C262
  8
0
 10
0.0208449909785034
 20
0.2744999645690087
 30
0.0
  0
VERTEX
  5
11C263
  8
0
 10
0.0210039122237485
 20
0.2747070517258827
 30
0.0
  0
VERTEX
  5
11C264
  8
0
 10
0.0212110145362564
 20
0.2748659532201684
 30
0.0
  0
VERTEX
  5
11C265
  8
0
 10
0.0214521855329048
 20
0.2749658411729355
 30
0.0
  0
VERTEX
  5
11C266
  8
0
 10
0.0217109913194436
 20
0.2749999090109414
 30
0.0
  0
VERTEX
  5
11C267
  8
0
 10
0.0222109875047462
 20
0.2750000005636756
 30
0.0
  0
VERTEX
  5
11C268
  8
0
 10
0.022081577982195
 20
0.2750170376505312
 30
0.0
  0
VERTEX
  5
11C269
  8
0
 10
0.0219609875047462
 20
0.2750669878617835
 30
0.0
  0
VERTEX
  5
11C26A
  8
0
 10
0.0218574341141529
 20
0.2751464471730824
 30
0.0
  0
VERTEX
  5
11C26B
  8
0
 10
0.021777974802854
 20
0.2752500005636756
 30
0.0
  0
VERTEX
  5
11C26C
  8
0
 10
0.0217280245916017
 20
0.2753705910411244
 30
0.0
  0
VERTEX
  5
11C26D
  8
0
 10
0.0217109875047462
 20
0.2755000005636757
 30
0.0
  0
VERTEX
  5
11C26E
  8
0
 10
0.0217109875047462
 20
0.2775000005636757
 30
0.0
  0
VERTEX
  5
11C26F
  8
0
 10
0.0217280245916017
 20
0.2776294100862269
 30
0.0
  0
VERTEX
  5
11C270
  8
0
 10
0.021777974802854
 20
0.2777500005636757
 30
0.0
  0
VERTEX
  5
11C271
  8
0
 10
0.0218574341141529
 20
0.277853553954269
 30
0.0
  0
VERTEX
  5
11C272
  8
0
 10
0.0219609875047462
 20
0.2779330132655679
 30
0.0
  0
VERTEX
  5
11C273
  8
0
 10
0.022081577982195
 20
0.2779829634768202
 30
0.0
  0
VERTEX
  5
11C274
  8
0
 10
0.0222109875047463
 20
0.2780000005636757
 30
0.0
  0
VERTEX
  5
11C275
  8
0
 10
0.9780000008579509
 20
0.2780000005636756
 30
0.0
  0
VERTEX
  5
11C276
  8
0
 10
0.9781294103805022
 20
0.2779829634768201
 30
0.0
  0
VERTEX
  5
11C277
  8
0
 10
0.9782500008579509
 20
0.2779330132655678
 30
0.0
  0
VERTEX
  5
11C278
  8
0
 10
0.9783535542485441
 20
0.2778535539542688
 30
0.0
  0
VERTEX
  5
11C279
  8
0
 10
0.978433013559843
 20
0.2777500005636756
 30
0.0
  0
VERTEX
  5
11C27A
  8
0
 10
0.9784829637710955
 20
0.2776294100862268
 30
0.0
  0
VERTEX
  5
11C27B
  8
0
 10
0.9785000008579508
 20
0.2775000005636756
 30
0.0
  0
VERTEX
  5
11C27C
  8
0
 10
0.9785000008579508
 20
0.2755000005636756
 30
0.0
  0
VERTEX
  5
11C27D
  8
0
 10
0.9784829637710955
 20
0.2753705910411243
 30
0.0
  0
VERTEX
  5
11C27E
  8
0
 10
0.978433013559843
 20
0.2752500005636755
 30
0.0
  0
VERTEX
  5
11C27F
  8
0
 10
0.9783535542485443
 20
0.2751464471730823
 30
0.0
  0
VERTEX
  5
11C280
  8
0
 10
0.9782500008579509
 20
0.2750669878617833
 30
0.0
  0
VERTEX
  5
11C281
  8
0
 10
0.9781294103805022
 20
0.275017037650531
 30
0.0
  0
VERTEX
  5
11C282
  8
0
 10
0.9780000008579509
 20
0.2750000005636756
 30
0.0
  0
VERTEX
  5
11C283
  8
0
 10
0.9784999977221481
 20
0.2750000921164099
 30
0.0
  0
VERTEX
  5
11C284
  8
0
 10
0.9787588035086869
 20
0.274966024278404
 30
0.0
  0
VERTEX
  5
11C285
  8
0
 10
0.9789999745053352
 20
0.2748661363256369
 30
0.0
  0
VERTEX
  5
11C286
  8
0
 10
0.9792070768178431
 20
0.2747072348313512
 30
0.0
  0
VERTEX
  5
11C287
  8
0
 10
0.9793659980630883
 20
0.2745001476744773
 30
0.0
  0
VERTEX
  5
11C288
  8
0
 10
0.9794659090162685
 20
0.2742589862054013
 30
0.0
  0
VERTEX
  5
11C289
  8
0
 10
0.9795000015368454
 20
0.2740001836691443
 30
0.0
  0
VERTEX
  5
11C28A
  8
0
 10
0.9795000015368454
 20
0.0070000480652356
 30
0.0
  0
VERTEX
  5
11C28B
  8
0
 10
0.9794659090162685
 20
0.0067412455289786
 30
0.0
  0
VERTEX
  5
11C28C
  8
0
 10
0.9793659980630883
 20
0.0065000840599026
 30
0.0
  0
VERTEX
  5
11C28D
  8
0
 10
0.9792070768178431
 20
0.0062929969030287
 30
0.0
  0
VERTEX
  5
11C28E
  8
0
 10
0.9789999745053352
 20
0.006134095408743
 30
0.0
  0
VERTEX
  5
11C28F
  8
0
 10
0.9787588035086869
 20
0.0060342074559758
 30
0.0
  0
VERTEX
  5
11C290
  8
0
 10
0.9784999977221481
 20
0.0060000633240247
 30
0.0
  0
SEQEND
  5
11C291
  8
0
  0
LINE
  5
11C1EC
  8
0
 10
0.0222109875047462
 20
0.2750000005636757
 30
0.0
 11
0.0717109875047458
 21
0.275000007433012
 31
0.0
  0
LINE
  5
11C1ED
  8
0
 10
0.0717109875047458
 20
0.275000007433012
 30
0.0
 11
0.0717109875047462
 21
0.2685000005636757
 31
0.0
  0
ARC
  5
11C1EE
  8
0
 10
0.0722109875047462
 20
0.2685000005636757
 30
0.0
 40
0.0005
 50
180.0
 51
270.00000000001108
  0
LINE
  5
11C1EF
  8
0
 10
0.0722109875047463
 20
0.2680000005636756
 30
0.0
 11
0.9280000008579508
 21
0.2680000005636756
 31
0.0
  0
ARC
  5
11C1F0
  8
0
 10
0.9280000008579508
 20
0.2685000005636756
 30
0.0
 40
0.0005000000000001
 50
270.00000000001268
 51
359.99999999999358
  0
LINE
  5
11C1F1
  8
0
 10
0.9285000008579508
 20
0.2685000005636756
 30
0.0
 11
0.9285000008579512
 21
0.2750000140239777
 31
0.0
  0
LINE
  5
11C1F2
  8
0
 10
0.9285000008579512
 20
0.2750000140239777
 30
0.0
 11
0.9780000008579509
 21
0.2750000005636756
 31
0.0
  0
POLYLINE
  5
11C1F3
  8
0
 66
     1
 10
0.0
 20
0.0
 30
0.0
 70
     1
  0
VERTEX
  5
11C292
  8
0
 10
0.0217109913194436
 20
0.2810000005636755
 30
0.0
  0
VERTEX
  5
11C293
  8
0
 10
0.0214610041262327
 20
0.2810341446956266
 30
0.0
  0
VERTEX
  5
11C294
  8
0
 10
0.0212110145362564
 20
0.2811340326483938
 30
0.0
  0
VERTEX
  5
11C295
  8
0
 10
0.0210039122237485
 20
0.2812929341426795
 30
0.0
  0
VERTEX
  5
11C296
  8
0
 10
0.0208449909785034
 20
0.2815000212995533
 30
0.0
  0
VERTEX
  5
11C297
  8
0
 10
0.0207450800253231
 20
0.2817411827686294
 30
0.0
  0
VERTEX
  5
11C298
  8
0
 10
0.0207109875047462
 20
0.2819999853048864
 30
0.0
  0
VERTEX
  5
11C299
  8
0
 10
0.0207109875047462
 20
0.5490001209087952
 30
0.0
  0
VERTEX
  5
11C29A
  8
0
 10
0.0207450800253232
 20
0.5492589234450521
 30
0.0
  0
VERTEX
  5
11C29B
  8
0
 10
0.0208449909785035
 20
0.5495000849141281
 30
0.0
  0
VERTEX
  5
11C29C
  8
0
 10
0.0210039122237486
 20
0.5497071720710021
 30
0.0
  0
VERTEX
  5
11C29D
  8
0
 10
0.0212110145362565
 20
0.5498660735652879
 30
0.0
  0
VERTEX
  5
11C29E
  8
0
 10
0.0214521855329048
 20
0.5499659615180549
 30
0.0
  0
VERTEX
  5
11C29F
  8
0
 10
0.0217109913194436
 20
0.5500000293560607
 30
0.0
  0
VERTEX
  5
11C2A0
  8
0
 10
0.0222109875047463
 20
0.550000120908795
 30
0.0
  0
VERTEX
  5
11C2A1
  8
0
 10
0.022081577982195
 20
0.5500171579956507
 30
0.0
  0
VERTEX
  5
11C2A2
  8
0
 10
0.0219609875047462
 20
0.5500671082069029
 30
0.0
  0
VERTEX
  5
11C2A3
  8
0
 10
0.021857434114153
 20
0.5501465675182019
 30
0.0
  0
VERTEX
  5
11C2A4
  8
0
 10
0.0217779748028541
 20
0.5502501209087951
 30
0.0
  0
VERTEX
  5
11C2A5
  8
0
 10
0.0217280245916017
 20
0.5503707113862438
 30
0.0
  0
VERTEX
  5
11C2A6
  8
0
 10
0.0217109875047463
 20
0.5505001209087951
 30
0.0
  0
VERTEX
  5
11C2A7
  8
0
 10
0.0217109875047463
 20
0.5525001209087951
 30
0.0
  0
VERTEX
  5
11C2A8
  8
0
 10
0.0217280245916018
 20
0.5526295304313463
 30
0.0
  0
VERTEX
  5
11C2A9
  8
0
 10
0.021777974802854
 20
0.5527501209087951
 30
0.0
  0
VERTEX
  5
11C2AA
  8
0
 10
0.0218574341141529
 20
0.5528536742993884
 30
0.0
  0
VERTEX
  5
11C2AB
  8
0
 10
0.0219609875047462
 20
0.5529331336106873
 30
0.0
  0
VERTEX
  5
11C2AC
  8
0
 10
0.022081577982195
 20
0.5529830838219397
 30
0.0
  0
VERTEX
  5
11C2AD
  8
0
 10
0.0222109875047463
 20
0.5530001209087951
 30
0.0
  0
VERTEX
  5
11C2AE
  8
0
 10
0.9780000008579511
 20
0.553000120908795
 30
0.0
  0
VERTEX
  5
11C2AF
  8
0
 10
0.9781294103805024
 20
0.5529830838219395
 30
0.0
  0
VERTEX
  5
11C2B0
  8
0
 10
0.9782500008579511
 20
0.5529331336106872
 30
0.0
  0
VERTEX
  5
11C2B1
  8
0
 10
0.9783535542485443
 20
0.5528536742993883
 30
0.0
  0
VERTEX
  5
11C2B2
  8
0
 10
0.9784330135598433
 20
0.5527501209087951
 30
0.0
  0
VERTEX
  5
11C2B3
  8
0
 10
0.9784829637710956
 20
0.5526295304313461
 30
0.0
  0
VERTEX
  5
11C2B4
  8
0
 10
0.978500000857951
 20
0.5525001209087951
 30
0.0
  0
VERTEX
  5
11C2B5
  8
0
 10
0.978500000857951
 20
0.550500120908795
 30
0.0
  0
VERTEX
  5
11C2B6
  8
0
 10
0.9784829637710956
 20
0.5503707113862438
 30
0.0
  0
VERTEX
  5
11C2B7
  8
0
 10
0.9784330135598433
 20
0.5502501209087951
 30
0.0
  0
VERTEX
  5
11C2B8
  8
0
 10
0.9783535542485443
 20
0.5501465675182017
 30
0.0
  0
VERTEX
  5
11C2B9
  8
0
 10
0.9782500008579511
 20
0.5500671082069029
 30
0.0
  0
VERTEX
  5
11C2BA
  8
0
 10
0.9781294103805024
 20
0.5500171579956504
 30
0.0
  0
VERTEX
  5
11C2BB
  8
0
 10
0.9780000008579511
 20
0.5500001209087949
 30
0.0
  0
VERTEX
  5
11C2BC
  8
0
 10
0.9784999977221481
 20
0.5500002124615293
 30
0.0
  0
VERTEX
  5
11C2BD
  8
0
 10
0.9787588035086869
 20
0.5499661446235235
 30
0.0
  0
VERTEX
  5
11C2BE
  8
0
 10
0.9789999745053354
 20
0.5498662566707563
 30
0.0
  0
VERTEX
  5
11C2BF
  8
0
 10
0.9792070768178431
 20
0.5497073551764707
 30
0.0
  0
VERTEX
  5
11C2C0
  8
0
 10
0.9793659980630884
 20
0.5495002680195968
 30
0.0
  0
VERTEX
  5
11C2C1
  8
0
 10
0.9794659090162685
 20
0.5492591065505207
 30
0.0
  0
VERTEX
  5
11C2C2
  8
0
 10
0.9795000015368454
 20
0.5490003040142638
 30
0.0
  0
VERTEX
  5
11C2C3
  8
0
 10
0.9795000015368454
 20
0.282000168410355
 30
0.0
  0
VERTEX
  5
11C2C4
  8
0
 10
0.9794659090162685
 20
0.281741365874098
 30
0.0
  0
VERTEX
  5
11C2C5
  8
0
 10
0.9793659980630883
 20
0.281500204405022
 30
0.0
  0
VERTEX
  5
11C2C6
  8
0
 10
0.9792070768178431
 20
0.281293117248148
 30
0.0
  0
VERTEX
  5
11C2C7
  8
0
 10
0.9789999745053352
 20
0.2811342157538623
 30
0.0
  0
VERTEX
  5
11C2C8
  8
0
 10
0.9787588035086869
 20
0.2810343278010952
 30
0.0
  0
VERTEX
  5
11C2C9
  8
0
 10
0.9784999977221481
 20
0.281000183669144
 30
0.0
  0
SEQEND
  5
11C2CA
  8
0
  0
LINE
  5
11C1F4
  8
0
 10
0.0222109875047462
 20
0.550000120908795
 30
0.0
 11
0.0717109875047459
 21
0.5500001277781315
 31
0.0
  0
LINE
  5
11C1F5
  8
0
 10
0.0717109875047459
 20
0.5500001277781315
 30
0.0
 11
0.0717109875047462
 21
0.5435001209087951
 31
0.0
  0
ARC
  5
11C1F6
  8
0
 10
0.0722109875047463
 20
0.5435001209087951
 30
0.0
 40
0.0005
 50
180.0
 51
270.00000000001108
  0
LINE
  5
11C1F7
  8
0
 10
0.0722109875047464
 20
0.5430001209087952
 30
0.0
 11
0.9280000008579509
 21
0.5430001209087951
 31
0.0
  0
ARC
  5
11C1F8
  8
0
 10
0.9280000008579508
 20
0.543500120908795
 30
0.0
 40
0.0005000000000001
 50
270.00000000001268
 51
359.99999999999358
  0
LINE
  5
11C1F9
  8
0
 10
0.928500000857951
 20
0.543500120908795
 30
0.0
 11
0.9285000008579514
 21
0.5500001343690971
 31
0.0
  0
LINE
  5
11C1FA
  8
0
 10
0.9285000008579514
 20
0.5500001343690971
 30
0.0
 11
0.9780000008579511
 21
0.5500001209087949
 31
0.0
  0
POLYLINE
  5
11C1FB
  8
0
 66
     1
 10
0.0
 20
0.0
 30
0.0
 70
     1
  0
VERTEX
  5
11C2CB
  8
0
 10
0.0085861074601
 20
0.5580002136199777
 30
0.0
  0
VERTEX
  5
11C2CC
  8
0
 10
0.0084521862117995
 20
0.5579659327256699
 30
0.0
  0
VERTEX
  5
11C2CD
  8
0
 10
0.0082110152151511
 20
0.5578660447729027
 30
0.0
  0
VERTEX
  5
11C2CE
  8
0
 10
0.0080039129026431
 20
0.5577071432786172
 30
0.0
  0
VERTEX
  5
11C2CF
  8
0
 10
0.0078449916573981
 20
0.557500056121743
 30
0.0
  0
VERTEX
  5
11C2D0
  8
0
 10
0.0077450807042177
 20
0.5572588946526671
 30
0.0
  0
VERTEX
  5
11C2D1
  8
0
 10
0.0077109881836409
 20
0.55700009211641
 30
0.0
  0
VERTEX
  5
11C2D2
  8
0
 10
0.0077109881836408
 20
0.0049999565125015
 30
0.0
  0
VERTEX
  5
11C2D3
  8
0
 10
0.0077450807042176
 20
0.0047411539762445
 30
0.0
  0
VERTEX
  5
11C2D4
  8
0
 10
0.0078449639144922
 20
0.0044999586358264
 30
0.0
  0
VERTEX
  5
11C2D5
  8
0
 10
0.0080038836767754
 20
0.0042928537773803
 30
0.0
  0
VERTEX
  5
11C2D6
  8
0
 10
0.0082109915663552
 20
0.0041339379653603
 30
0.0
  0
VERTEX
  5
11C2D7
  8
0
 10
0.008452173182013
 20
0.0040340413112385
 30
0.0
  0
VERTEX
  5
11C2D8
  8
0
 10
0.0087109919983381
 20
0.0039999717712905
 30
0.0
  0
VERTEX
  5
11C2D9
  8
0
 10
0.0167109875047462
 20
0.0039999717712908
 30
0.0
  0
VERTEX
  5
11C2DA
  8
0
 10
0.0169697921845998
 20
0.0040340419612473
 30
0.0
  0
VERTEX
  5
11C2DB
  8
0
 10
0.0172109618825971
 20
0.0041339309842958
 30
0.0
  0
VERTEX
  5
11C2DC
  8
0
 10
0.0174180632666563
 20
0.0042928323904525
 30
0.0
  0
VERTEX
  5
11C2DD
  8
0
 10
0.017576984423684
 20
0.0044999186188859
 30
0.0
  0
VERTEX
  5
11C2DE
  8
0
 10
0.0176768964470219
 20
0.0047410787892089
 30
0.0
  0
VERTEX
  5
11C2DF
  8
0
 10
0.017710991319444
 20
0.0049998802185564
 30
0.0
  0
VERTEX
  5
11C2E0
  8
0
 10
0.0177109875047462
 20
0.0040000005636756
 30
0.0
  0
VERTEX
  5
11C2E1
  8
0
 10
0.0194109901750343
 20
0.0039999383926896
 30
0.0
  0
VERTEX
  5
11C2E2
  8
0
 10
0.0193592344810173
 20
0.0039931183342044
 30
0.0
  0
VERTEX
  5
11C2E3
  8
0
 10
0.019311005763175
 20
0.0039731394494452
 30
0.0
  0
VERTEX
  5
11C2E4
  8
0
 10
0.0192695885835334
 20
0.0039413623776561
 30
0.0
  0
VERTEX
  5
11C2E5
  8
0
 10
0.0192378036120499
 20
0.0038999512602028
 30
0.0
  0
VERTEX
  5
11C2E6
  8
0
 10
0.0192178155280893
 20
0.0038517263541839
 30
0.0
  0
VERTEX
  5
11C2E7
  8
0
 10
0.0192109855973976
 20
0.0037999719620255
 30
0.0
  0
VERTEX
  5
11C2E8
  8
0
 10
0.0192109855973976
 20
0.0001999658585099
 30
0.0
  0
VERTEX
  5
11C2E9
  8
0
 10
0.0192178155280893
 20
0.0001482114663516
 30
0.0
  0
VERTEX
  5
11C2EA
  8
0
 10
0.0192378036120499
 20
0.0000999865603326
 30
0.0
  0
VERTEX
  5
11C2EB
  8
0
 10
0.0192695885835334
 20
0.0000585754428795
 30
0.0
  0
VERTEX
  5
11C2EC
  8
0
 10
0.019311005763175
 20
0.0000267983710903
 30
0.0
  0
VERTEX
  5
11C2ED
  8
0
 10
0.0193592344810173
 20
0.000006819486331
 30
0.0
  0
VERTEX
  5
11C2EE
  8
0
 10
0.0194109901750343
 20
-0.0000000005721541
 30
0.0
  0
VERTEX
  5
11C2EF
  8
0
 10
0.0320109924638526
 20
-0.0000000005721543
 30
0.0
  0
VERTEX
  5
11C2F0
  8
0
 10
0.0320627466749383
 20
0.0000068207407289
 30
0.0
  0
VERTEX
  5
11C2F1
  8
0
 10
0.0321109736653036
 20
0.0000268003822375
 30
0.0
  0
VERTEX
  5
11C2F2
  8
0
 10
0.0321523890274386
 20
0.0000585776768638
 30
0.0
  0
VERTEX
  5
11C2F3
  8
0
 10
0.0321841722468255
 20
0.0000999884923586
 30
0.0
  0
VERTEX
  5
11C2F4
  8
0
 10
0.0322041587877208
 20
0.0001482126238447
 30
0.0
  0
VERTEX
  5
11C2F5
  8
0
 10
0.0322109875047462
 20
0.0001999658585098
 30
0.0
  0
VERTEX
  5
11C2F6
  8
0
 10
0.0322109875047462
 20
0.0037999719620257
 30
0.0
  0
VERTEX
  5
11C2F7
  8
0
 10
0.0322041587877208
 20
0.0038517251966907
 30
0.0
  0
VERTEX
  5
11C2F8
  8
0
 10
0.0321841722468255
 20
0.0038999493281769
 30
0.0
  0
VERTEX
  5
11C2F9
  8
0
 10
0.0321523890274386
 20
0.0039413601436716
 30
0.0
  0
VERTEX
  5
11C2FA
  8
0
 10
0.0321109736653036
 20
0.003973137438298
 30
0.0
  0
VERTEX
  5
11C2FB
  8
0
 10
0.0320627466749383
 20
0.0039931170798066
 30
0.0
  0
VERTEX
  5
11C2FC
  8
0
 10
0.0320109924638526
 20
0.0039999383926897
 30
0.0
  0
VERTEX
  5
11C2FD
  8
0
 10
0.0337109875047462
 20
0.0040000005636756
 30
0.0
  0
VERTEX
  5
11C2FE
  8
0
 10
0.0337109875047462
 20
0.0050000005636756
 30
0.0
  0
VERTEX
  5
11C2FF
  8
0
 10
0.9665000008579509
 20
0.0050000005636755
 30
0.0
  0
VERTEX
  5
11C300
  8
0
 10
0.9665000008579509
 20
0.0040000005636755
 30
0.0
  0
VERTEX
  5
11C301
  8
0
 10
0.9681999958988454
 20
0.0040000005636755
 30
0.0
  0
VERTEX
  5
11C302
  8
0
 10
0.9681482416877587
 20
0.0039931170798065
 30
0.0
  0
VERTEX
  5
11C303
  8
0
 10
0.9681000146973934
 20
0.0039731374382979
 30
0.0
  0
VERTEX
  5
11C304
  8
0
 10
0.9680585993352584
 20
0.0039413601436715
 30
0.0
  0
VERTEX
  5
11C305
  8
0
 10
0.9680268161158716
 20
0.0038999493281768
 30
0.0
  0
VERTEX
  5
11C306
  8
0
 10
0.9680068295749762
 20
0.0038517251966906
 30
0.0
  0
VERTEX
  5
11C307
  8
0
 10
0.9680000008579508
 20
0.0037999719620256
 30
0.0
  0
VERTEX
  5
11C308
  8
0
 10
0.9680000008579508
 20
0.0001999658585097
 30
0.0
  0
VERTEX
  5
11C309
  8
0
 10
0.9680068295749762
 20
0.0001482126238446
 30
0.0
  0
VERTEX
  5
11C30A
  8
0
 10
0.9680268161158716
 20
0.0000999884923585
 30
0.0
  0
VERTEX
  5
11C30B
  8
0
 10
0.9680585993352584
 20
0.0000585776768637
 30
0.0
  0
VERTEX
  5
11C30C
  8
0
 10
0.9681000146973934
 20
0.0000268003822374
 30
0.0
  0
VERTEX
  5
11C30D
  8
0
 10
0.9681482416877587
 20
0.0000068207407288
 30
0.0
  0
VERTEX
  5
11C30E
  8
0
 10
0.9681999958988443
 20
-0.0000000005721544
 30
0.0
  0
VERTEX
  5
11C30F
  8
0
 10
0.9807999981876628
 20
-0.0000000005721543
 30
0.0
  0
VERTEX
  5
11C310
  8
0
 10
0.9808517538816797
 20
0.0000068194863309
 30
0.0
  0
VERTEX
  5
11C311
  8
0
 10
0.9808999825995222
 20
0.0000267983710902
 30
0.0
  0
VERTEX
  5
11C312
  8
0
 10
0.9809413997791637
 20
0.0000585754428794
 30
0.0
  0
VERTEX
  5
11C313
  8
0
 10
0.9809731847506471
 20
0.0000999865603325
 30
0.0
  0
VERTEX
  5
11C314
  8
0
 10
0.9809931728346077
 20
0.0001482114663515
 30
0.0
  0
VERTEX
  5
11C315
  8
0
 10
0.9810000027652995
 20
0.0001999658585098
 30
0.0
  0
VERTEX
  5
11C316
  8
0
 10
0.9810000027652995
 20
0.0037999719620254
 30
0.0
  0
VERTEX
  5
11C317
  8
0
 10
0.9809931728346077
 20
0.0038517263541838
 30
0.0
  0
VERTEX
  5
11C318
  8
0
 10
0.9809731847506471
 20
0.0038999512602027
 30
0.0
  0
VERTEX
  5
11C319
  8
0
 10
0.9809413997791637
 20
0.0039413623776558
 30
0.0
  0
VERTEX
  5
11C31A
  8
0
 10
0.9808999825995222
 20
0.0039731394494451
 30
0.0
  0
VERTEX
  5
11C31B
  8
0
 10
0.9808517538816797
 20
0.0039931183342043
 30
0.0
  0
VERTEX
  5
11C31C
  8
0
 10
0.9807999981876628
 20
0.0039999383926895
 30
0.0
  0
VERTEX
  5
11C31D
  8
0
 10
0.9825000008579508
 20
0.0040000005636755
 30
0.0
  0
VERTEX
  5
11C31E
  8
0
 10
0.9825000008579509
 20
0.004999788665822
 30
0.0
  0
VERTEX
  5
11C31F
  8
0
 10
0.9825340933785282
 20
0.00474106242351
 30
0.0
  0
VERTEX
  5
11C320
  8
0
 10
0.9826340043317086
 20
0.004499900954434
 30
0.0
  0
VERTEX
  5
11C321
  8
0
 10
0.9827929255769538
 20
0.00429281379756
 30
0.0
  0
VERTEX
  5
11C322
  8
0
 10
0.9830000278894615
 20
0.0041339123032743
 30
0.0
  0
VERTEX
  5
11C323
  8
0
 10
0.983241199992795
 20
0.0040339504085128
 30
0.0
  0
VERTEX
  5
11C324
  8
0
 10
0.9835000046726488
 20
0.0039998802185563
 30
0.0
  0
VERTEX
  5
11C325
  8
0
 10
0.9914999970432536
 20
0.0039999717712904
 30
0.0
 42
0.4142012720995691
  0
VERTEX
  5
11C326
  8
0
 10
0.9924999996014442
 20
0.0049999565125014
 30
0.0
  0
VERTEX
  5
11C327
  8
0
 10
0.9924999996014442
 20
0.5570000921164099
 30
0.0
  0
VERTEX
  5
11C328
  8
0
 10
0.9924659070808676
 20
0.557258894652667
 30
0.0
  0
VERTEX
  5
11C329
  8
0
 10
0.9923659961276869
 20
0.557500056121743
 30
0.0
  0
VERTEX
  5
11C32A
  8
0
 10
0.992207074882442
 20
0.557707143278617
 30
0.0
  0
VERTEX
  5
11C32B
  8
0
 10
0.9919999725699341
 20
0.5578660447729026
 30
0.0
  0
VERTEX
  5
11C32C
  8
0
 10
0.9917588015732857
 20
0.5579659327256699
 30
0.0
  0
VERTEX
  5
11C32D
  8
0
 10
0.9916248803249851
 20
0.5580002136199775
 30
0.0
  0
SEQEND
  5
11C32E
  8
0
  0
ENDSEC
  0
EOF
